Song name
# A B C D E F G H I J K L M N O P Q R S T U V W X Y Z

Saliva - Dont Question My Heart tab

Saliva: ‘Dont Question My Heart’ Tab
To see rhythm watch my cover: http://www.youtube.com/watch?v=uWkgZyI8LBc
Guitar 1:Wayne Swinny(Rhythm): Db Ab Db Gb Bb Eb
Guitar 2: Wayne Swinny(Lead)     : Db Ab Db Gb Bb Eb
Intro Guitar 1:Clean with Little distorsion
eb|-------------------------------|
Bb|-------------------------------|
Gb|-------------------------------|
Db|----3--------5----3------------|
Ab|--0--0-----5----3--3-----------|
Db|-0-0--0-/-5----3---------------|

Guitar 2 Intro:Distorsion
eb|--------------------------------------------------|
Bb|-----6-----8^-6-8-8^--6---------------------------|
Gb|-------7----------------7-7/9^(10)----------------|
Db|-5/7----------------------------------------------|
Ab|--------------------------------------------------|
Db|--------------------------------------------------|

Verse Guitar 1:Same as intro
Verse Guitar 2:During the verse(Listen to the song to know when it plays)
eb|-------------------------------------------|
Bb|--6-8^--------------------------13^--------|
Gb|------------12^-10-12^----12^10------------|
Db|-------------------------------------------|
Ab|-------------------------------------------|
Db|-------------------------------------------|

Pre-chorus riff Guitar 1:Distorsion
eb|--------------------------------------|
Bb|--------------------------------------|
Gb|--------------------------------------|
Db|0-0-0-3-------0-0-0-3-6-5-------------|
Ab|0-0-0-3-5-6---0-0-0-3-6-5-------------|
Db|0-0-0-3-5-6---0-0-0-3-6-5-------------|

Guitar 2 during chorus:Clean and hard to hear


eb|---------------------|
Bb|-2--2--2--2--2-------|
Gb|--3--3--3--3--3------|
Db|---------------------|
Ab|---------------------|
Db|---------------------|



Guitar 1 chorus:Distorted
eb|--------------------------------------------------|
Bb|--------------------------------------------------|
Gb|--------------------------------------------------|
Db|-8888888-5555555--8888888-5555555-----------------|
Ab|-8888888-5555555--8888888-5555555-----------------|
Db|-8888888-5555555--8888888-5555555-----------------|

Then plays pre-chorus riff once

Guitar 1 chorus(Continuation)




eb|--------------------------------------------------|
Bb|--------------------------------------------------|
Gb|--------------------------------------------------|
Db|-8888888-5555555--8888-pmpmpm--5555---------------|
Ab|-8888888-5555555--8888-101010--5555---------------|
Db|-8888888-5555555--8888-101010--5555 --------------|

Then Guitar 1 Plays:
eb|-------------------|
Bb|-------------------|
Gb|-------------------|
Db|-0-00-3--0-0-0-3---|
Ab|-0-00-3--0-0-0-3---|
Db|-0-00-3--0-0-0-3---|

Guitar 1 plays the intro during Verse 2
Guitar 2 Plays:

eb|----------------------------------------|
Bb|------------------------------13--------|
Gb|--10/12-10-----------12/13/14-----------|
Db|--------------10/12---------------------|
Ab|-----------12---------------------------|
Db|----------------------------------------|

Solo(Played by guitar 2)


eb|---------15^-15^-15^-13----10--10--10--10---10---------------|
Bb|------13---------------15--13^-13^-13^-13^-----13-10---------|
Gb|12/14------------------------------------------------13-12-10|
Db|-------------------------------------------------------------|
Ab|-------------------------------------------------------------|
Db|-------------------------------------------------------------|

Solo(Continued)
eb|--------------------------------10--12--13--15--17----------|
Bb|-------10-10---10---------------13^-15^-16^-18^-20^---------|
Gb|-------10-10---10-12^-12^-10--------------------------------|
Db|-10-12-------12--------------12-----------------------------|
Ab|------------------------------------------------------------|
Db|------------------------------------------------------------|

Guitar 1 Verse 3:Intro


Guitar 2 Plays:

eb|------------------------------------|
Bb|-----------------------------13^----|
Gb|---------12^-10-12^---12^-10--------|
Db|-10/12------------------------------|
Ab|------------------------------------|
Db|------------------------------------|

The rest of the song repeats the same riffs
Guitar Notation:
Pm:palm-mute
^:bending
/:slide
Tap to rate this tab
# A B C D E F G H I J K L M N O P Q R S T U V W X Y Z