Song name
# A B C D E F G H I J K L M N O P Q R S T U V W X Y Z

Saliva - Click Click Boom tab

Tabbed By : Astoner420
Email Me And Tell Me What U Think  : kcaj@frontiernet.net

(CLICK CLICK BOOM)
     (Saliva) 

Drop Cb (Sharp)  
----------------------------------------------------------------------------
Intro
(play x4)
db[------------------------------]
Ab[------------------------------]
Fb[------------------------------]
cb[-----5/7/5-------------5/7/5--]
Gb[--0--3/5/3--5-5--3--0--3/5/3--]
Cb[--0---------5-5--3--0---------]
----------------------------------------------------------------------------
Verse
(play x8)(Palm Mute the First x4)
db[------------------------------]
Ab[------------------------------]
Fb[------------------------------]
cb[------------------------------]
Gb[--0-1-1--3-3h5p3--------------]
Cb[--0-1-1--3-3h5p3--------------]
----------------------------------------------------------------------------
Intro
(x4)
----------------------------------------------------------------------------
Interlude 
(x2)
db[------------------------------]
Ab[------------------------------]
Fb[------------------------------]
cB[--3-3-3-3---------------------]
Gb[--1-1-1-1-5-5-5-5-------------]
Cb[----------5-5-5-5-------------]
----------------------------------------------------------------------------
Intro
(x2)
----------------------------------------------------------------------------
Verse
(play x8)(Palm Mute First x4)
----------------------------------------------------------------------------
Intro
(x4)
----------------------------------------------------------------------------
Interlude 
(x2)
----------------------------------------------------------------------------
Intro
(x4)
----------------------------------------------------------------------------
Bridge
db[-------------------------------------------------------]
Ab[-------------------------------------------------------]
Fb[------------------------------------HOLD 7th FRET DOWN-]
cb[--------------------------------------------v----------]
Gb[--12/8--10/5--12/8--7/5--12/8--10/5--12/8--{7}---------]
Cb[--12/8--10/5--12/8--7/5--12/8--10/5--12/8--{7}---------]
----------------------------------------------------------------------------
Intro
(x4)
----------------------------------------------------------------------------
There it is. Please rate it this is my frist tab.

Key
[/] slide down
[h] hammer on 
[p] pull off
Tap to rate this tab
# A B C D E F G H I J K L M N O P Q R S T U V W X Y Z