Song name
# A B C D E F G H I J K L M N O P Q R S T U V W X Y Z

Saliva - Lackluster tab

==================================================================
			     Lackluster

			      Saliva
			Every Six Seconds
==================================================================


Tabbed by:  John Moores
		mooresjw@email.uc.edu



Tuning:  Drop C# or Drop Db

* = Palm mute


Intro
0:00

|--------------------------------------------------------|
|--------------------------------------------------------|
|--------------------------------------------------------|
|--------------------------------------------------------|   x6
|--------------------------------------------------------|
|----0-0---0-0--0-0--0--0--0h6p0h6-----------------------|
     * *   * *  * *  *  *




|--------------------------------------------------------|
|--------------------------------------------------------|
|--------------------------------------------------------|
|-----------------------------0h6p0h6--------------------|   
|-----------------------------0h6p0h6--------------------|
|----0-0---0-0--0-0--0--0-----0h6p0h6--------------------|
     * *   * *  * *  *  



0:15/0:16
|--------------------------------------------------------|
|--------------------------------------------------------|
|--------------------------------------------------------|   x7
|----0-0---0-0--0-0--0--0--0h6p0h6-----------------------|
|----0-0---0-0--0-0--0--0--0h6p0h6-----------------------|
|----0-0---0-0--0-0--0--0--0h6p0h6-----------------------|
     * *   * *  * *  *  *


Verse 1
0:35/0:36
|--------------------------------------------------------|
|--------------------------------------------------------|
|--------------------------------------------------------|
|--------------------------------------------------------|   x7
|--------------------------------------------------------|
|----0-0---0-0--0-0--0--0--0h6\--------------------------|
     * *   * *  * *  *  *   *


0:56

|--------------------------------------------------------|
|--------------------------------------------------------|
|--------------------------------------------------------|
|-------------------------0h6p0h6------------------------|
|-------------------------0h6p0h6------------------------|
|---0-0---0-0--0-0--0--0--0h6p0h6------------------------|


|--------------------------------------------------------|
|--------------------------------------------------------|
|--------------------------------------------------------|
|----0-0---0-0--0-0--0--0--0h6p0h6-----------------------|   x5
|----0-0---0-0--0-0--0--0--0h6p0h6-----------------------|
|----0-0---0-0--0-0--0--0--0h6p0h6-----------------------|
     * *   * *  * *  *  *




Verse 2
1:06
|--------------------------------------------------------|
|--------------------------------------------------------|
|--------------------------------------------------------|
|--------------------------------------------------------|   x7
|--------------------------------------------------------|
|----0-0---0-0--0-0--0--0--0h6\--------------------------|
     * *   * *  * *  *  *   *


1:24
|--------------------------------------------------------|
|--------------------------------------------------------|
|--------------------------------------------------------|
|-------------------------0h6p0h6------------------------|
|-------------------------0h6p0h6------------------------|
|---0-0---0-0--0-0--0--0--0h6p0h6------------------------|
    * *   * *  * *  *  *

Bridge
1:28
|---------------------------------------------------------|
|---------------------------------------------------------|
|---------------------------------------------------------|
|--3--3---5--5-h6p0h6-----------------------------h6p0h6--|
|--3--3---5--5-h6p0h6--0-0---0-0---0-0--0-0--0--0-h6p0h6--|
|--3--3---5--5-h6p0h6--0-0---0-0---0-0--0-0--0--0-h6p0h6--|
                       * *   * *   * *  * *  *  *


|-------------------------------------------------------|
|-------------------------------------------------------|
|-------------------------------------------------------|
|----3--3---5--5---6-6-6-6---8---8/10-------------------|
|----3--3---5--5---6-6-6-6---8---8/10-------------------|
|----3--3---5--5---6-6-6-6---8---8/10-------------------|



Chorus
1:47
|---------------------------------------------------------|
|---------------------------------------------------------|
|---------------------------------------------------------|
|--7---7--7---8--8----5--5----1---1-----------------------|  x2
|--5---5--5---8--8----5--5----1---1-----------------------|
|--0---0--0---8--8----5--5----1---1-----------------------|


2:07
|---------------------------------------------------------|
|---------------------------------------------------------|
|---------------------------------------------------------|
|-------0h6p0h6-------------------------------------------|
|-------0h6p0h6-------------------------------------------|
|-------0h6p0h6-------------------------------------------|

2:08
|---------------------------------------------------------|
|---------------------------------------------------------|
|---------------------------------------------------------|   x4
|----0-0---0-0--0-0--0--0--0h6p0h6------------------------|
|----0-0---0-0--0-0--0--0--0h6p0h6------------------------|
|----0-0---0-0--0-0--0--0--0h6p0h6------------------------|
            * *   * *  * *  *  *



Verse 3 (same as verse 2)
2:18




Bridge
2:38


Chorus
2:59

3:19
|---------------------------------------------------------|
|---------------------------------------------------------|
|---------------------------------------------------------|
|-------0h6p0h6-------------------------------------------|
|-------0h6p0h6-------------------------------------------|
|-------0h6p0h6-------------------------------------------|




Intro
3:20

Solo Rhythm
3:39/3:40
|--------------------------------------------------------|
|--------------------------------------------------------|
|--------------------------------------------------------|
|----0-0---0-0--0-0--0--0--0h6p0h6-----------------------|   x5
|----0-0---0-0--0-0--0--0--0h6p0h6-----------------------|
|----0-0---0-0--0-0--0--0--0h6p0h6-----------------------|
     * *   * *  * *  *  *

Bridge
4:00


Chorus
4:20/4:21




Outro
5:01
|---------------------------------------------------------|
|---------------------------------------------------------|
|---------------------------------------------------------|
|-------0h6p0h6-------------------------------------------|
|-------0h6p0h6-------------------------------------------|
|-------0h6p0h6-------------------------------------------|


5:02
|--------------------------------------------------------|
|--------------------------------------------------------|
|--------------------------------------------------------|
|----0-0---0-0--0-0--0--0--0h6p0h6-----------------------|   x3
|----0-0---0-0--0-0--0--0--0h6p0h6-----------------------|
|----0-0---0-0--0-0--0--0--0h6p0h6-----------------------|
Tap to rate this tab
# A B C D E F G H I J K L M N O P Q R S T U V W X Y Z