Song name
# A B C D E F G H I J K L M N O P Q R S T U V W X Y Z

Saliva - Rock And Roll Revolution tab

Hey I made the intro to this song earlier but now i have the whole song. NOTE:
The rythm of this song is really different so make sure you listen to it over
and over then you'll catch on..and it's fast!
Song: Rock and Roll Revolution
Band: Saliva
Album: Survival of the Sickest
Tuning: Drop C#

p Pull off
h Hammer on
~ Ring out
/ Slide
^ Upstroke
v Downstroke

Heres the intro again..and the rest of the song HAVE FUN!
Intro..
|----------------|---------------|---------------|----------|
|----------------|---------------|---------------|----------|
|----------------|---------------|---------------|----------|
|----------------|---------------|---------------|-------3~-|
|----------------|-------5-------|---------------|-------3~-|
|2-2-0-2-5-2-0-2-|-2-0-2---2-0-2-|-2-0-2-5-2-0-2-|-2-0-2-3~-|


Verse..
|------------------------------|
|------------------------------|
|------------------------------|
|------------------------------|
|-2p0-2--2p0-2--2p0-2--2p0h2-3-|
|-2p0-2--2p0-2--2p0-2--2p0h2-3-|


Pre-Chorus..
|-------------|-------------|-------------|--------------|
|-------------|-------------|-------------|--------------|
|-------------|-------------|-------------|--------------|
|-------------|-------------|-------------|--------------|
|-7--9--10--0-|-7--9--10--3-|-7--9--10--0-|-7--9--10--3~-|
|-7--9--10--0-|-7--9--10--3-|-7--9--10--0-|-7--9--10--3~-|


Chorus...
|-------------|-------------|------------------------|
|-------------|-------------|------------------------|
|-------------|-------------|------------------------|
|-------------|-------------|------------------------|
|-------------|-------------|-55555-5555--77777-7777-|
|-2-0-2/8-7-5-|-2-0-2/8-7-5-|-55555-5555--77777-7777-|
                              v^v^v ^v^v  v^v^v ^v^v
(find out scratching yourself)

Post Chorus...
|--------|-------|--------|-------|
|--------|-------|--------|-------|
|--------|-------|--------|-------|
|--------|-------|--------|-------|
|---10---|---7---|---10---|---3---|
|---10---|---7---|---10---|---3---|



Order...
Intro 6x
Verse 4x
Pre-Chorus 2x
Chorus 2x
Post Chorus 1x
Intro 2x
Verse 4x
Pre-Chorus 2x
Chorus 2x
Post Chorus 1x
Intro 2x
Verse 4x
Pre-Chorus 2x
Chorus 2x
Post-Chorus 1x
Intro 2x

REALLY EASY AND VERY FUN SONG TO PLAY!!!
Tap to rate this tab
# A B C D E F G H I J K L M N O P Q R S T U V W X Y Z