Song name
# A B C D E F G H I J K L M N O P Q R S T U V W X Y Z

Saliva - Call It Something tab

Band- Saliva
Song- Call It Something

tuning: standard.

x = strike (try to hit a harmonic if you can!)
* = natural harmonic

intro: listen for timing

distortion:
    A5                 F#5             D5               E5 (octave)
e|-----------------------------------------------------------------------------|
b|-----------------------------------------------------------------------------|
g|-------------------------------------7------7-7-7-----9------9-9-9-----------|
d|---7------7-7-7-x-x--4------4-4-4----7------7-7-7-----9------9-9-9-----------|
a|---7------7-7-7-x-x--4------4-4-4----5------5-5-5-----7------7-7-7-----------|
e|---5------5-5-5-x-x--2------2-2-2--------------------------------------------|

verse: clean, listen for pattern:

  A                              F#
Emma was a school gem, and she shot the **** with the best of them

         D                                         E
and she used clean needles when she can, and when that...etc....

repeat chords over entire verse, till

A5 (see above!)
   Sanctified rich girl, with her

F#5
Daddy\'s kisses, and her mother\'s pearls

          D5
and she played dumb...

     E5 (up an octave, as shown in intro)
...found her dead...

CHORUS, double-time feel (play each chord half as many times as in verses)...listen to 
for accuracy
   A5
e|--------------------------|
b|--------------------------|
g|--------------------------|
d|-7-7-X-X--------------X-X-|
a|-7-7-X-X--------------X-X-|
e|-5-5-X-X-5*-3*-2*-4*--X-X-|

                   We all go
   F#5            D5             E5 (again, octave)
e|-------------------------------------------|
b|-------------------------------------------|
g|----------------7-7-7-7-7-7----9-9-9-9-9-9-|
d|-4-4-4-X-X-X----7-7-7-7-7-7----9-9-9-9-9-9-|
a|-4-4-4-X-X-X----5-5-5-5-5-5----7-7-7-7-7-7-|
e|-2-2-2-X-X-X-------------------------------|

down and hit the  gro -   -   -   -  -  und

* Harmonic strike
Tap to rate this tab
 
# A B C D E F G H I J K L M N O P Q R S T U V W X Y Z