Song name
# A B C D E F G H I J K L M N O P Q R S T U V W X Y Z

Saliva - Musta Been Wrong tab

It may not be the best but, it will suffice. This is my first tab so, don't expect that it will be perfect.
However, put my heart into making it. You will have to know the song to find out how many times you have to
play it.


SALIVA : Musta Been Wrong

Intro, mostly used in the song.

E:---------------------------------|
B:---------------------------------|
G:---------------------------------|
D:--2h4----2h4----2h4----444-------|
A:--2h4----2h4----2h4----444-------|
E:--2h4----2h4----2h4----444-------|

LNR = Let note ring
Rythem or bass change to guitar
E:---------------------------------------------|
B:---------------------------------------------|
G:---------------------------------------------|
D:--4-4-4-x-2LNR-----4-4-4-x-2-----------------|LNR
A:--4-4-4-x-2LNR-----4-4-4-x-2-----------------|LNR
E:--2-2-2-x-1LNR-----2-2-2-x-1-----------------|LNR

Fire up for Chorus
E:---------------------------------|
B:---------------------------------|
G:---------------------------------|
D:--2h4----2h4----2h4----444-------|
A:--2h4----2h4----2h4----444-------|
E:--2h4----2h4----2h4----444-------|

Chorus:

 1BEAT    3BEAT
E:---------------------|
B:---------------------|
G:---------------------|
D:--2LNR--2LNR---------|
A:--2LNR--2LNR---------|
E:--0LNR--0LNR---------|

Intro copied
E:---------------------------------|
B:---------------------------------|
G:---------------------------------|
D:--2h4----2h4----2h4----444-------|
A:--2h4----2h4----2h4----444-------|
E:--2h4----2h4----2h4----444-------|

LNR = Let note ring
Rythem or bass change to guitar
E:---------------------------------------------|
B:---------------------------------------------|
G:---------------------------------------------|
D:--4-4-4-x-2LNR-----4-4-4-x-2-----------------|LNR
A:--4-4-4-x-2LNR-----4-4-4-x-2-----------------|LNR
E:--2-2-2-x-1LNR-----2-2-2-x-1-----------------|LNR

SOLO:

E:-------------------------------------------------------|-----------------------------------|---------|
B:-------------------------------------------------------|-----------------------------------|16/18-B19|
G:-------------------------------------------------------|18-17-16-18-17-16-18-17-16-18-17-16|---------|
D:--8/10--10/12--8/10--10/12--12-13-12-13-12-13-12--13h15|-----------------------------------|---------|
A:8b-----------------------------------------------------|-----------------------------------|---------|
E:-------------------------------------------------------|-----------------------------------|---------|

Ending:
 1BEAT    3BEAT
E:---------------------|
B:---------------------|
G:---------------------|
D:--2LNR--2LNR---------|
A:--2LNR--2LNR---------|
E:--0LNR--0LNR---------|
Tap to rate this tab
# A B C D E F G H I J K L M N O P Q R S T U V W X Y Z