Song name
# A B C D E F G H I J K L M N O P Q R S T U V W X Y Z

Saliva - Unleashed Batistas Theme tab

Here.. For all you Batista/Saliva fans..

Heavy Distortion/Reverb (For all the Les Paul style users.. Turn your switch to bass tone)

E-string Fill 1: (Just use one finger for the intro)
------------------------------------|
------------------------------------|
------------------------------------|
------------------------------------|
------------------------------------|
-3-0-3-0-3-0-0-3-5-3-0-6p-0-5-0-3-0-|

Lyrics : "Yeeeeeeeeeeeeaaaaahhhhh!"

E-string Fill 2: (Now use two fingers)
------------------------------------|
------------------------------------|
------------------------------------|
------------------------------------|
-5-0-5-0-5-0-0-5-7-5-0-8p-x-7-0-5-0-|
-3-0-3-0-3-0-0-3-5-3-0-6p-x-5-0-3-0-|

I'm working on the verse.. But here's the Chorus.

-----------------------------------------|
-----------------------------------------|
-----------------------------------------|
-----------------------------------------|
-0-5-0-8-0-7-0-8-0-7-5-888-0-7-5---------|
-0-3-0-6-0-5-0-6-0-5/3-666-0-5-3---  <---|Let last chord ring for 5 seconds

Chorus Continued :

-----------------------------------|
-----------------------------------|
-----------------------------------|
-----------------------------------|
-------------------5----7--8-x-8-7-|
-------------------3----5--6-x-6-5-|

Repeat E-string Fill 2.. That's basically it. Enjoy. I'll work on the verse.. It's not a 
deal.. You just do a lot of single string notes there.

Anyone feel free to e-mail me if you think something's wrong.. Which unless I made a 
Nothing's wrong.
Tap to rate this tab
 
# A B C D E F G H I J K L M N O P Q R S T U V W X Y Z