Song name
# A B C D E F G H I J K L M N O P Q R S T U V W X Y Z

Saliva - Let Me Rest In Pieces tab

tabed by:tenanious

 [MAIN RIFF]
e|---------------------|
B|------6---------4----|
G|----6--6-6----6--6-6-|
D|---6-6--6----4-6--6--|
A|--4---------4--------|
E|---------------------|

 [chorus]
e|----------|
B|----------|
G|----------|
D|--8--6--4-|
A|--8--6--4-|
E|--6--4--2-|

 [BRIDGE]                              [PART WHERE HE SINGS THE CHORUS
e|----------------------------|         AND PLAYS THIS]
B|----6---------4--------7----|
G|--6--6-6--6----6-6---6--6-6-|
D|-6-6--6--4-6----6---6-6--6--|
A|4-------4----------4--------|
E|----------------------------|

 [OUTRO]
e|-------|
B|-------|
G|-6-4---|
D|-6-4-7-|
A|-4-2-7-|
E|-----5-|

 i dont think the outro is perfect but i think its pretty close please rate
Tap to rate this tab
# A B C D E F G H I J K L M N O P Q R S T U V W X Y Z