Song name
# A B C D E F G H I J K L M N O P Q R S T U V W X Y Z

Salman Ahmad - Sagar tab

intro

e---------------------------------|
b------10-9-10--5~-h6p5~----------|
g---------------------------------|
d---0-----------------------------|
a---------------------------------|
E---------------------------------|

strum(x1)
e----0----|
b----3----|
g----2----|
d----0----|
a----0----|
E----0----|

e---------------------------------|
b------10-9-10--5~-h6p5~----------|
g---------------------------------|
d---0-----------------------------|
a---------------------------------|
E---------------------------------|

e---------------------------------|
b---------------------------------|
g-2p1h2-4h5-4/2-1~----------------|
d---------------------------------|
a---------------------------------|
E---------------------------------|

strum (x1)
e----0----|
b----3----|
g----2----|
d----0----|
a----0----|
E----0----|

e---------------------------------|
b---------------------------------|
g-2p1h2-4h5-4/2-1~----------------|
d---------------------------------|
a---------------------------------|
E---------------------------------|

e---------------------------------|
b---------------------------------|
g-7p6h7-9/10-9p7-6~---------------|
d---------------------------------|
a---------------------------------|
E---------------------------------|

strum (x1)
e----0----|
b----3----|
g----2----|
d----0----|
a----0----|
E----0----|

e---------------------------------|
b---------------------------------|
g-7p6h7-9h12-9p7-6~---------------|
d---------------------------------|
a---------------------------------|
E---------------------------------|

and then the phat bass
e---------------------------------|
b---------------------------------|
g----2-0-2----2-------------------|
d------------2----2---2-----------|
a--0----------------2-------------|
E---------------------------------|
repeat couple of times.
Tap to rate this tab
 
# A B C D E F G H I J K L M N O P Q R S T U V W X Y Z