Song name
# A B C D E F G H I J K L M N O P Q R S T U V W X Y Z

Salman Ahmad - Al-vida tab

Solo tabbed by AHMAD guitar player of VIRD.

.:INTRO:.

The riff is not exact but very close, its a lil confusing so play while
listening to the song so u may have a good idea how it is played.

   play a few times   play a few time                                        
e|--------0---------|--------1--------|              
B|--------0---------|--------0--------|
G|--------3---------|--------3--------|play 2x before beat comes in,
D|--------3---------|--------3--------|and play 2x with the beat
A|------------------|-----------------|
E|------------------|-----------------|

Am                  G      Am                     \
  kaisey kahoon yeh raaz tujhay                    |
F      G         Em                                |
  mera dil dey aawaz tujhay                        |
Am                      G    Am                    |
  yun he rahey to meray baad bhi                   |
F         G            Em                          |play 2x
  tujhay sukh dey meri yaad bhi                    |
     Am  C        G        Am  C               G   |
al-vidaaaaa, al-vida, al-vidaaaaa mera sath jo dia |
      Am  C         G                              |
meray doooost shukria                              |
     Am  C        G                                |
al-vidaaaaa, al-vida                              /
                  


This is a lil confusing so listen to the song to play this riff right
This is to be played as intro.
                                                                            
e|--0--|--1--|---0---|--2--|                  |--4--|--2--|
B|--0--|--0--|---0---|--3--|play a few times  |--5--|--3--|
G|--3--|--3--|---3---|--2--|                  |--4--|--2--|play all parts
D|--3--|--3--|---3---|--0--|then slip to chord|--0--|--0--|for 4-5 times.
A|-----|-----|-------|-----|                  |-----|-----|
E|-----|-----|-------|-----|                  |-----|-----|


     F             G              C     Am
meri zindagi, mein sakoon hai, na qarar hai
      F              G              F    G
meray paas bass teri yaad hai, tera pyar hai
     Am
al-vidaaaa...

.:SOLO:.

I improvised this solo on accoustic thats why im using (open note of A "0") to support the solo.
When playing on lead guitars use light distortion, and do not play that open note or it will sound messy. 
This is the exact solo.

riff#1
E---------------------------------------|
B---------------------------------------|
G---------------------------------------|
D---7-9-7---10-10---5-7---9s12---10-10--|
A-0-------0-------0-----0------0--------|
E---------------------------------------|

riff#2
E--------------------------------------------|
B--------------------------------------------|
G--------------------------------------------|
D---7-9---7h10-10-7-9-6-7-6-7-6-7-7---3---2--|
A-0-----0---------------------------0---0----|
E--------------------------------------------|

riff#3
E-------------------------------------------------------------|
B-----------------------------------17----17----17-----17-----|
G-------------------------------------------------------------|
D---7-9-7-10-10s12-10-12s14-14--14-----14----14-----14----14--|
A-0-----------------------------------------------------------|
E-------------------------------------------------------------|

riff#3
E-----------------------------------------|
B-----------------------------------------|
G-----------------------------------------|
D---7-9---7h10-10-10---9---7---6---3---2--|
A-0-----0------------0---0---0---0---0----|
E-----------------------------------------|

     F              G                C    Am
teri chahatoon, key rahein gey aisay silsilay
     F                G             F      G
hein kathin magar koi meray jaisa tujhay millay

Am                  G      Am                     \
  kaisey kahoon yeh raaz tujhay                    |
F      G         Em                                |
  mera dil dey aawaz tujhay                        |
Am                      G    Am                    |play with 1 or 2 strums
  yun he rahey to meray baad bhi                   |till:
F         G            Em                          |mera dil dey aawaz tujhay
  tujhay sukh dey meri yaad bhi                    |then come back to proper
     Am  C        G        Am  C               G   |strumming. Till fade...
al-vidaaaaa, al-vida, al-vidaaaaa mera sath jo dia |
      Am  C         G                              |
meray doooost shukria                              |
     Am  C        G                                |
al-vidaaaaa, al-vida                              /

JUNOON Kicks ass... play with the feel and there u have it!!!
questions and comments u r welcome
durtyguitar@yahoo.com (ahmad)
Tap to rate this tab
# A B C D E F G H I J K L M N O P Q R S T U V W X Y Z