Guitaretab - guitar tabs
Song name
# A B C D E F G H I J K L M N O P Q R S T U V W X Y Z

Salmonella Dub - For The Love Of It tab

-------------------------------------------------------------------------------
			     FOR THE LOVE OF IT - Salmonella Dub
-------------------------------------------------------------------------------
Tabbed by: Me
Tuning: Standard (EADGBe)

The main verse part is basically just the following Ebm-C#

Fig. 1
e|----x-6---x-6---x-6---x-6---x-6---x-6---x-6---x-444----|
B|----x-7---x-7---x-7---x-7---x-7---x-7---x-7---x-444----|
G|----x-8---x-8---x-8---x-8---x-8---x-8---x-8---x-666----|		 x4
D|----x-8---x-8---x-8---x-8---x-8---x-8---x-8---x-666----|
A|----x-6---x-6---x-6---x-6---x-6---x-6---x-6---x-444----|
E|-------------------------------------------------------|
      Ebm                                       C#

Bridge (the "we move to the music" part)
(I'm not 100% sure of this part, but this what I think I saw Tiki play live)
[ Tab from: http://www.guitaretab.com/s/salmonella-dub/70954.html ]
Fig. 2
e|-----------------------------------------------------|
B|-----------------------------------------------------|
G|----x-5---x-5---x-5---x-5---x-5---x-5---x-6---x-6----|
D|----x-5---x-5---x-5---x-5---x-5---x-5---x-6---x-6----|
A|----x-3---x-3---x-3---x-3---x-3---x-3---x-4---x-4----|
E|----x-x---x-x---x-x---x-x---x-x---x-x---x-x---x-x----|
      C	                                  C#

Fig. 3
e|----x-6---x-6---x-6---x-6---x-6---x-6---x-4~~---444----|
B|----x-7---x-7---x-7---x-7---x-7---x-7---x-4~~---444----|
G|----x-8---x-8---x-8---x-8---x-8---x-8---x-6~~---666----|
D|----x-8---x-8---x-8---x-8---x-8---x-8---x-6~~---666----|
A|----x-6---x-6---x-6---x-6---x-6---x-6---x-4~~---777----|
E|-------------------------------------------------------|
      Ebm                                 C#      C#*

Then back to the Verse: Fig.1 (x4)
Bridge: Fig.2 (x1), Fig.3 (x1)

Chorus is just Ebm-C#-C#-Ebm

e|----x-6---x-6-|-x-6---x-6---x-4---x-4---x-4---x-4---x-6---x-6----|
B|----x-7---x-7-|-x-7---x-7---x-4---x-4---x-4---x-4---x-7---x-7----|
G|----x-8---x-8-|-x-8---x-8---x-6---x-6---x-6---x-6---x-8---x-8----|
D|----x-8---x-8-|-x-8---x-8---x-6---x-6---x-6---x-6---x-8---x-8----|
A|----x-6---x-6-|-x-6---x-6---x-4---x-4---x-4---x-4---x-6---x-6----|
E|--------------|--------------------------------------------------|
      Ebm         Ebm         C#          C#          Ebm

etc.

==============================================================================
Related for For The Love Of It tab
Advertisement will be closed in 10 seconds