Song name
# A B C D E F G H I J K L M N O P Q R S T U V W X Y Z

Salmonella Dub - Peyote Dub tab

Help us improve GuitareTab! Take a short survey!
-------------------------------------------------------------------------------
			     PEYOTE DUB - Salmonella Dub
-------------------------------------------------------------------------------
Tabbed by: Me
Tuning: Standard (EADGBe)

It's pretty much all just the following Em-D progression

e|---x-7---x-7---x-5---x-5----|
B|---x-8---x-8---x-7---x-7----|
G|---x-9---x-9---x-7---x-7----|
D|---x-9---x-9---x-7---x-7----|
A|---x-7---x-7---x-5---x-5----|
E|---x-7---x-7---x-5---x-5----|

The cool little solo-ey bit thing goes like this

e|-------------------------------------------------------------|
B|---12~~---10-12-10\8-10-8~~---7-8-7\5-7-5~~---7-8-7\5-5~~----|
G|-------------------------------------------------------------|
D|-------------------------------------------------------------|
A|-------------------------------------------------------------|
E|-------------------------------------------------------------|

| /  slide up
| \  slide down
| h  hammer-on
| p  pull-off
| ~  vibrato
| +  harmonic
| x  Mute note
===============================================================================
Related for Peyote Dub tab