Guitaretab - guitar tabs
Song name
# A B C D E F G H I J K L M N O P Q R S T U V W X Y Z

Salmonella Dub - Love Your Ways tab

KEY
T= I use my thumb to mute the top string

 I wont settle for second best,I wont take nothing no less and you

E)-X--X--X--X--X-----------------------------------------------X--X--X--X---|
B)-3--X--3--X--3-----------------------------------------------5--X--5--X---|
G)-4--X--4--X--4---ETC--->>>-----------------------------------5--X--5--X---|
D)-5--X--5--X--5-----------------------------------------------5--X--5--X---|
A)-5--X--5--X--5-----------------------------------------------3--X--3--X---|
E)-T--X--T--X--T-----------------------------------------------X--X--X--X---|


Girl its got to be you....
E)-X--X--X--X--X---------->
B)-5--X--5--X--5---------->
G)-5--X--5--X--5   etc---->
D)-5--X--5--X--5---------->
A)-3--X--3--X--3---------->
E)-X--X--X--X--X---------->

Ive been away for 6 months long, when today im comming home to you,
[ Tab from: http://www.guitaretab.com/s/salmonella-dub/74017.html ]
E)-X--X--X--X--X-----------------------------------------------X--X--X--X---|
B)-3--X--3--X--3-----------------------------------------------5--X--5--X---|
G)-4--X--4--X--4---ETC--->>>-----------------------------------5--X--5--X---|
D)-5--X--5--X--5-----------------------------------------------5--X--5--X---|
A)-5--X--5--X--5-----------------------------------------------3--X--3--X---|
E)-T--X--T--X--T-----------------------------------------------X--X--X--X---|

Girl its got to be you....
E)-X--X--X--X--X---------->
B)-5--X--5--X--5---------->
G)-5--X--5--X--5   etc---->
D)-5--X--5--X--5---------->
A)-3--X--3--X--3---------->
E)-X--X--X--X--X---------->

The song repeats that rythym the whole way through. Very easy, its the vocals that give 
melodie to this song. Guitar is just back ground.

Anyone know the lyrics for the rap for this song, please let me know. Been wanting to 
them for ages.

Chur chur bro, Aotearoa!
Related for Love Your Ways tab
Love Your Ways chords by Salmonella Dub