Song name
# A B C D E F G H I J K L M N O P Q R S T U V W X Y Z

Salt-n-peppa - Push It tab

SONG: Push It
ARTIST: Salt-N-Peppa
YEAR: 1987

I decided to upload a tab to a classic disco tune. 

Bass Riff 1:

G|---------------|----------------------------|
D|---------------|----------------------------|
A|---------------|---------------------2-3-2--|
E|-5--0-5--0-3---|-5--0-5--0-3---0-3-0--------|

Bass riff 2:

G|---------------|
D|---------------|
A|---------------|
E|-4--3-4--3-4---|

Guitar Riff:

E|---------------|----------------------|
B|---------------|----------------------|
G|----9-7--------|----------------------|
D|-7-------10--9-|------------9-10-9----|
A|---------------|-10--10--10--------10-|
E|---------------|----------------------|

Lyrics;

[drums only]
Ah, push it 
Ah, push it 

[bass 1]
Oooh, baby, baby 
Baby, baby 
Oooh, baby, baby 
Baby, baby 

Get up on this! 

[drums only]
Ah, push it 
Ah, push it 

[guitar and bass1]
Ow! Baby! 

[bass 1 and drums only]
Salt and Pepa's here! 

Now wait a minute, y'all 
This dance ain't for everybody 
Only the sexy people 
So all you fly mothers, get on out there and dance 
Dance, I said!

[guitar joins in]
Salt and Pepa's here, and we're in effect 
Want you to push it, babe 
Coolin' by day then at night working up a sweat 
C'mon girls, let's go show the guys that we know 
How to become number one in a hot party show 
Now push it 

[bass 2]
Ah, push it - push it good 
Ah, push it - push it real good 
Ah, push it - push it good 
Ah, push it - p-push it real good 

[guitar and bass 1]
Hey! Ow! 
Push it good! 

[drums only]
Oooh, baby, baby 
Baby, baby 
Oooh, baby, baby 
Baby, baby 

Push it good 
P-push it real good 

[bass 1]
Ah, push it 
Ah, push it 

Yo, yo, yo, yo, baby-pop 
Yeah, you come here, gimme a kiss 
Better make it fast or else I'm gonna get p****d 
Can't you hear the music's pumpin' hard like I wish you would? 
Now push it 

[bass 2]
Push it good 
P-push it real good (x2)

[guitar and bass 1]
Ah, push it 
Get up on this! 

Boy, you really got me going 
You got me so I don't know what I'm doing 

[drums only]
Ah, push it
Tap to rate this tab
# A B C D E F G H I J K L M N O P Q R S T U V W X Y Z