Song name
# A B C D E F G H I J K L M N O P Q R S T U V W X Y Z

Salt The Wound - Gannon tab

-----------------------------------------------------------------------------
			     Gannon INTRO by Salt the Wound
-----------------------------------------------------------------------------
Tabbed by: atreyufancurse
Email: lazydawg1@gmail.com

This is probably one of the best songs off of Carnal Repercussions.
This is just the intro, i don't have the rest.

Tuning: Drop A

e|--------------------------------------------------------------------------|
B|--------------------------------------------------------------------------|
G|--------------------------------------------------------------------------|
D|-------------------8--------8-10------10-12-------------------------------|
A|---------5----------8-8~--------10---------12~----------------------------|
D|-000-000---0-8p5-0-------00--------00-------------------------------------|

e|--------------------------------------------------------------------------|
B|--------------------------------------------------------------------------|
G|--------------------------------------------------------------------------|
D|-------------------8------------------------------------------------------|
A|---------5----------8-8~---3--3-3-1/6\1-----------------------------------|
D|-000-000---0-8p5-0-------33-33-3-1/6\1-----------------------------------|
Tap to rate this tab
 
# A B C D E F G H I J K L M N O P Q R S T U V W X Y Z