Guitaretab - guitar tabs
Song name
# A B C D E F G H I J K L M N O P Q R S T U V W X Y Z

Salty Dog - Just Like A Woman tab

Song: Just Like a Woman
Artist: Salty Dog
Album: Every Dog Has Its Day
Tuning: one half-step down
Note: Only basic licks are recorded here, modify to fit song
Status: incomplete, mail corrections to nine_furry_old_people@yahoo.com
Tab Legend:
	p=pull off
	h=hammer on
	b=bend
	r=return/release bend
	~=vibrato
	/=slide up
	\=slide down
	14b---r14=hold bend until notes above are played, then return
	(?)=tried, failed - good luck

C      G              D
Show a nice affection baby
C       G                D
Make it simple with your innocence that shines
C        G          D
Though I knew a few women that had no mercy and I
C            G                      Bb
Know I canít live my life
                Bb C   D
Through someone elseís eyes

           D                 C
Ainít that just like a woman
              G
Baby, baby
                     D
Ainít that just like you

C                    G
Take the walk on the line
D
Tickin like a time bomb
C       G              D
Make me feel the earth grown and passed me by
C           G                D
I thought I knew where I was searching
C                G             Bb
It all looks the same when you stare
Bb  C   D
At the sky

            D                 C
Ainít that just like a woman
           G
Baby, baby
                     D
Ainít that just like you
           D                  C
Ainít that just like a woman
         G                           D
So amazed by the things that she can do


Just like a woman

She hurts like a woman

Yeah

Thatís just like you

Just like you babe

C        G            D
Now I know a few more women

With a little mercy and I
C           G
Ainít gonna waste my time
Bb
Waste my time
C                      D
Waste my time with you woman


Ainít that juts like a woman

Baby, baby

Ainít that just like you

Ainít that just like a woman

So amazed by the things that she can do

She can, thatís right


Just like, just like a woman

She hurts like a woman, woman, woman

So amazed by the things she can do

Ainít that just like a woman

Yeah
[ Tab from: http://www.guitaretab.com/s/salty-dog/167838.html ]
                                                                             GTR 1
           x2                                 GTR 2
|-5/7\5-5-5/7-5--------|-------------5---------x5---5-x---|-10-----------|
|-5/7\5-5-5/7-5--8-7-5-|-------------5b7(hold)-x5b7r5-x-7-|---10-10------|
|----------------------|-----7--------------------------7-|------ 9b11~--|
|----------------------|-7h9---9p7-0----------------------|--------------|
|----------------------|----------------------------------|--------------|
|----------------------|----------------------------------|--------------|

GTR 1
|--------------/12------------------------------------------------------|
|-----------------13-12-------------------------------------------------|
|-9b11r9p7-------------12~-12-14-12-------------------------------------|
|----------10~----------------------14br-12~-12-14-12----12-------------|
|-----------------------------------------------------14----14-12-------|
|----------------------------------------------------------------12h14--|

|---------------12-----------------------------------------------------|
|-----------------13-12----------------15------------------------------|
|----------------------12--12-14-12------14----------------------------|
|------12h14------------------------14b----r14p12--12------------------|
|-12h14-----15-----------------------------------14--14-12-------------|
|---------------------------------------------------------14-12-12-10--|

Licks


                                        Usually right before chorus
|-10/12-12-12/10-10-10/12-12-12/10-10-8-|-5--5--5-----------|
|-10/12-12-12/10-10-10/12-12-12/10-10-8-|-5b-5b-5b--5-------|
|-------------------------------------9-|----------7-7----7-|
|---------------------------------------|--------------7h9--|
|---------------------------------------|-------------------|
|---------------------------------------|-------------------|

|-------------------------|
|-------------------------|
|-------------------------|
|--------12--12h14-12-----|
|------12--12--------12---|
|-12h14----------------14-|

SOLO 1

|---12-------------------------------------------------------------------|
|--13--13-12-------------------------------(-?-)-------------------------|
|-12--------12~-12-14-12-------------------14-14-------------------------|
|-----------------------14b16r14-12~-12-14b-----r14p12-12-12/10----------|
|---------------------------------------------------------------14-12h14-|
|------------------------------------------------------------------------|

|----------12-------------------------------------------|
|---------13--13-12--------------/12~--10~--8~--7~--5~--|
|--------12--------12~-12-14-12-------------------------|
|-12----------------------------------------------------|
|---15~-------------------------------------------------|
|-------------------------------------------------------|