Song name
# A B C D E F G H I J K L M N O P Q R S T U V W X Y Z

Salvador - David Dances tab

David Danced
     “Salvador”

[Verse]
Am Am7 E7 Am

E--------------------------------|
B--------------------------------|
G--------------------------------|
D---------0-3-2------------------|
A---0-2-3------------------------|
E--------------------------------|

Am Am7 E7 Am

Am7         Dm7
E----------(5)---------------------|
B----------(6)---------------------|
G----------(5)---------------------|
D----------(7)---------------------|
A---0-2-3-4(5)---------------------|
E----------------------------------|

[Chorus]
Dm G C Am7 E7 Am-A
Dm G C Am7 E7 Am
Tap to rate this tab
 
# A B C D E F G H I J K L M N O P Q R S T U V W X Y Z