Song name
# A B C D E F G H I J K L M N O P Q R S T U V W X Y Z

Sam Champion - Be Mine Everyone tab

E|-----------------------------------------------------------------------|
B|-----0--0---------------------------------0--0----------------------3--|
G|-----------2------------------------------------2-------------------2--|
D|---------------4-----2---4---0----------------------4-----2---4--0--0--|
A|--2-------------------------------2----2-------------------------------|
E|-----------------------------------------------------------------------|

E|-----------------------------------------------------------------------|
B|-----0--0--------------------------------------------------------------|
G|-----------2-----------------------------------------------------------|
D|---------------4-----2---4---0---------0---0-0-0--0---0-0-0------------|
A|--2-------------------------------2----2/5-5-5-5--2/5-5-5-5------------|
E|-----------------------------------------------------------------------|


And over and over again..!
Tap to rate this tab
 
# A B C D E F G H I J K L M N O P Q R S T U V W X Y Z