Song name
# A B C D E F G H I J K L M N O P Q R S T U V W X Y Z

Sam Hart - Broken As I Am chords

Highlighted       Show chord diagrams
-------------------------------------------------------------------------------
                             Broken As I Am - Sam Hart
-------------------------------------------------------------------------------
Tabbed by: Cody Meserole
E-mail: cjmeserole@yahoo.com

Tuning: Standard tuning, capo on 1st fret
Key: Db (obviously with the capo you play as if in the key of C)

This song is so sweet! I hope you like my tab here, it's nothing fancy and the picking isn't 
exactly what Sam plays, but it's close enough. He plays basically the same riff all throughout
the song, so I'll put the riff first and then put the chords with the lyrics under that. Enjoy!

These are essentially the riffs he plays with each chord, you can match them up with the lyrics  
below. 

    F             G            C 
e|-------------------------------------------------------------------------------|
B|--------------------0h1------------------1-------------------------------------|
G|-------0h2-------------0-------0---0-------0-----------------------------------|
D|----------3--------0----0--------2--0h2------0-------(repeat this throughout)--|
A|----3------3------2----------3----------3--------------------------------------|
E|--1-------------3--------------------------------------------------------------|
 
    F          G          Am
e|---------------------------------------------------------------------------|
B|------------------3--------1/3-1-------------------------------------------|
G|------0h2----------0-------2/4-2-------------------------------------------|
D|---------3----------0----2-------------------------------------------------|
A|----3-----3----2--------0--------------------------------------------------|
E|--1----------3-------------------------------------------------------------|

 F         G               C
will you love me when I'm fat
F        G             C
and my hair has fallen out?
F           G             Am
when I'm an old and lonely man,
        F               G        C
will you still have me broken as I am?

F     G            C
if I ever lose my arms
F           G              C
or they're forced to take my legs
F          G            Am
when my heart lives in a can
F                       G          C
will you still have me broken as I am?

F  G   Am
ooooooooo
      F                 G          C
will you still have me broken as I am?

F     G       C
if I lose my mind
F      G                C
if I use up both of my eyes
F      G             Am
when I am lost and damned
      F                  G          C
will you still have me broken as I am?

F  G   Am
ooooooooo
    F                   G          C
will you still have me broken as I am?

F          G               C
when my bones are made of glass
F       G            C
and my life is on a wire
F            G            Am
will you be making other plans
         F                 G          C
or will you still have me broken as I am?

F   G   Am
oooooooooo
F    G    Am
oooooooooooo
F    G    Am
ooooooooooooo

      F                 G           C         
will you still have me broken as I am?

Outro:
F   G  Am
F   G  C
Tap to rate this tab
# A B C D E F G H I J K L M N O P Q R S T U V W X Y Z