Song name
# A B C D E F G H I J K L M N O P Q R S T U V W X Y Z

Sam Palladio And Clare Bowen - Fade Into You tab

"Fade Into You"
by
Sam Palladio and Clare Bowen
from the TV show, Nashville

Verse 1:
If you were the ocean and I was the sun
If the day made me heavy and gravity won
If I was the red and you were the blue
I could just fade into you
e|------0-0-----0-0-----0-0-----0-0-------------------------------------------|
B|------0-0-----0-0-----0-0-----0-0-------------------------------------------|
G|------0-0-----0-0-----0-0-----0-0-------------------------------------------|
D|---2-------0----------------------------------------------------------------|
A|-------------------4-------3------------------------------------------------|
E|----------------------------------------------------------------------------|
(Repeat 4x)

Verse 2:
If you were a window and I was the rain
I'd pour myself out and wash off the pain
I'd fall like a tear so your light could shine through
Then I'd just fade into you
e|------0-0-----0-0-----0-0-----0-0-------------------------------------------|
B|------0-0-----0-0-----0-0-----0-0-------------------------------------------|
G|------0-0-----0-0-----0-0-----0-0-------------------------------------------|
D|---2-------0----------------------------------------------------------------|
A|-------------------4-------3------------------------------------------------|
E|----------------------------------------------------------------------------|
(Repeat 4x)


Chorus 1:
In your heart, in your head, in your arms, in your bed under your skin
Til' there's no way to know where you end and where I begin
e|----0-0-----0-0-----0-0----0-0---------------------------------------------|
B|----0-0-----0-0-----0-0----0-0---------------------------------------------|
G|----0-0-----0-0-----0-0----0-0---------------------------------------------|
D|---------------------------------------------------------------------------|
A|---------------------------------------------------------------------------|
E|-0-------2-------3-------5-------------------------------------------------|
(Repeat 2x)

e|----0-0-----0-0-----0-0-----------0-0-----0-0-----0-0-----0-0--------------|
B|----0-0-----0-0-----0-0-----------0-0-----0-0-----0-0-----0-0--------------|
G|----0-0-----0-0-----0-0-----------0-0-----0-0-----0-0-----0-0--------------|
D|---------------------------------------------------------------------------|
A|---------------------------------------------------------------------------|
E|-0-------2-------3-------5-3-2--0-------0-------0------0-------------------|

Verse 3:
If I was a shadow and you were a street
The cobblestone midnight is where we first meet
Til the lights flickered out, we dance with the moon
Then I'd just fade into you
e|------0-0-----0-0-----0-0-----0-0-------------------------------------------|
B|------0-0-----0-0-----0-0-----0-0-------------------------------------------|
G|------0-0-----0-0-----0-0-----0-0-------------------------------------------|
D|---2-------0----------------------------------------------------------------|
A|-------------------4-------3------------------------------------------------|
E|----------------------------------------------------------------------------|
(Repeat 4x)

Chorus 2:
In your heart, in your head, in your arms, in your bed under your skin
Til' there's no way to know where you end and where I begin
e|----0-0-----0-0-----0-0----0-0---------------------------------------------|
B|----0-0-----0-0-----0-0----0-0---------------------------------------------|
G|----0-0-----0-0-----0-0----0-0---------------------------------------------|
D|---------------------------------------------------------------------------|
A|---------------------------------------------------------------------------|
E|-0-------2-------3-------5-------------------------------------------------|
(Repeat 2x)

I wanna melt in I wanna soak through I only wanna move when you move
I wanna breathe out when you breathe in then I wanna fade into you
e|----0-0-----0-0-----0-0----0-0---------------------------------------------|
B|----0-0-----0-0-----0-0----0-0---------------------------------------------|
G|----0-0-----0-0-----0-0----0-0---------------------------------------------|
D|---------------------------------------------------------------------------|
A|---------------------------------------------------------------------------|
E|-0-------2-------3-------5-------------------------------------------------|
(Repeat 2x)
e|----0-0-----0-0-----0-0-----------0-0-----0-0-----0-0-----0-0---------------|
B|----0-0-----0-0-----0-0-----------0-0-----0-0-----0-0-----0-0---------------|
G|----0-0-----0-0-----0-0-----------0-0-----0-0-----0-0-----0-0---------------|
D|----------------------------------------------------------------------------|
A|----------------------------------------------------------------------------|
E|-0-------2-------3-------5-3-2--0-------0-------0------0--------------------|

Verse 4:
If I was just ashes and you were the ground
And under your willow they laid me down
There'll be no trace that one was once two
After I fade into you
e|------0-0-----0-0-----0-0-----0-0-------------------------------------------|
B|------0-0-----0-0-----0-0-----0-0-------------------------------------------|
G|------0-0-----0-0-----0-0-----0-0-------------------------------------------|
D|---2-------0----------------------------------------------------------------|
A|-------------------4-------3------------------------------------------------|
E|----------------------------------------------------------------------------|
(Repeat 4x)

Outro:

Oooooo.....
Then I'd just fade into you (x4)
e|----0-0-----0-0-----0-0----0-0---------------------------------------------|
B|----0-0-----0-0-----0-0----0-0---------------------------------------------|
G|----0-0-----0-0-----0-0----0-0---------------------------------------------|
D|---------------------------------------------------------------------------|
A|---------------------------------------------------------------------------|
E|-0-------2-------3-------5-------------------------------------------------|

by: Bongiovanni
Tap to rate this tab
# A B C D E F G H I J K L M N O P Q R S T U V W X Y Z