Song name
# A B C D E F G H I J K L M N O P Q R S T U V W X Y Z

Sam Palladio And Clare Bowen - When The Right One Comes Along tab

it's not quite right, but since i couldn't find a tab, i worked it out the best i could, 
and it sounds pretty much spot on, except a few little twiddly bits :)

Tuning: Standard

Capo 1

Intro

e|-0-1-3--5-----3-|------------------------|---------3----------|
B|----------5-----|-5-3---5---3---1--------|-1-------0--------0-|
G|--------5---5-5-|-----5---6---4----2---2-|-2-----2--------0---|
D|----------------|-------7---5---3----3---|-----0--------0-----|
A|----------------|------------------------|---0----------------|
E|----------------|------------------------|-----------3--------|

e|-----------|
B|-1-----3p1-|
G|-2---2-----|
D|---3-------|
A|-----------|
E|-----------|

the verse is pretty much the same, so you can probably figure it out for yourself

Chorus

e|-1--x--|--------|-x--x--|
B|-2--1--|--------|-3--3--|
G|-3--2--|--------|-5--4--|
D|-3--3--|---x3---|-5--5--|
A|-x--x--|--------|-x--x--|
E|-x--x--|--------|-x--x--|

So that's pretty much the whole song, shouldn't be too hard to figure out the rest of 
it, good luck :)

Lyrics:

Thereís no music, no confetti
Crowds donít cheer, and bells donít ring
but youíll know it, I can guarantee
when the right one comes along

What theyíre thinkiní, what youíre feelin,
You no longer have to guess
All those questions are finally put to rest
When the right one comes along

Every single broken heart will lead you to the truth
you think you know what youíre lookin for
til what youíre lookin for finds you

In a cold world, itís a warm place
where you know youíre supposed to be
A million moments full of sweet relief
when the right one comes along

Every single broken heart will lead you to the truth
you think you know what youíre lookiní for
til what youíre lookiní for finds you

Itís so easy, nothiní to it
though you may not believe me now
But I promise that youíll find out
When the right one comes along

All that changes is only everything
when the right one comes along
Tap to rate this tab
# A B C D E F G H I J K L M N O P Q R S T U V W X Y Z