Song name
# A B C D E F G H I J K L M N O P Q R S T U V W X Y Z

Sam Palladio And Clare Bowen - Fade Into You chords

Highlighted       Show chord diagrams
"Fade Into You"
(with Sam Palladio)

Hey everybody,So this is how i play fade into you,this sounds 99% right this is 
not easy to play but once you get it you got it….Please be sure to read correctly 
or it won’t sound right… @ the parts with no chords just play the walkdown 
straight through .. Have fun enjoy 
Not beginner approved   

Capo 7

(Walkdown)
e|------0-0-----0-0-----0-0-----0-0-------------------------------------------|
B|------0-0-----0-0-----0-0-----0-0-------------------------------------------|
G|------0-0-----0-0-----0-0-----0-0-------------------------------------------|
D|---2-------1----------------------------------------------------------------|
A|-------------------0-------4------------------------------------------------|
E|----------------------------------------------------------------------------|
(Repeat 4x)

(play the walkdown throughout this part)=

 If you were the ocean and I was the sun
If the day made me heavy and gravity won
If I was the red and you were the blue
C           B7        Em
I could just fade into you

e|------0-0-----0-0-----0-0-----0-0-------------------------------------------|
B|------0-0-----0-0-----0-0-----0-0-------------------------------------------|
G|------0-0-----0-0-----0-0-----0-0-------------------------------------------|
D|---2-------1----------------------------------------------------------------|
A|-------------------0-------4------------------------------------------------|
E|----------------------------------------------------------------------------|

If you were a window and I was the rain
I’d pour myself out and wash off the pain
I’d fall like a tear so your light could shine through
 C           B7        Em
Then I’d just fade into you
 
Em              D
In your heart, in your head,
        C                 B7          Em
in your arms, in your bed under your skin,
         D
Til there’s no way to know where
  
C              B7
you end and where I begin

e|------0-0-----0-0-----0-0-----0-0-------------------------------------------|
B|------0-0-----0-0-----0-0-----0-0-------------------------------------------|
G|------0-0-----0-0-----0-0-----0-0-------------------------------------------|
D|---2-------1----------------------------------------------------------------|
A|-------------------0-------4------------------------------------------------|
E|----------------------------------------------------------------------------|

If I was a shadow and you were a street
The cobblestone midnight is where we first meet
Til the lights flickered out, we dance with the moon
C           B7        Em
Then I’d just fade into you

  Em              D
In your heart, in your head,
        C                 B7          Em
in your arms, in your bed under your skin,
         D
Til there’s no way to know where
  C              B7
you end and where I begin
  D                     C
I wanna melt in I wanna soak through
  B7                Em
I only wanna move when you move
  D                 C
I wanna breathe out when you
C                      B7
breathe in then I wanna fade into you

e|------0-0-----0-0-----0-0-----0-0-------------------------------------------|
B|------0-0-----0-0-----0-0-----0-0-------------------------------------------|
G|------0-0-----0-0-----0-0-----0-0-------------------------------------------|
D|---2-------1----------------------------------------------------------------|
A|-------------------0-------4------------------------------------------------|
E|----------------------------------------------------------------------------|

If I was just ashes and you were the ground
And under your willow they laid me down
There’ll be no trace that one was once two
C           B7        Em
After I fade into you






e|------0-0-----0-0-----0-0-----0-0-------------------------------------------|
B|------0-0-----0-0-----0-0-----0-0-------------------------------------------|
G|------0-0-----0-0-----0-0-----0-0-------------------------------------------|
D|---2-------1----------------------------------------------------------------|
A|-------------------0-------4------------------------------------------------|
E|----------------------------------------------------------------------------|
OoOoOo OoOoOo OoOoOo
Then I just fade into you.
OoOoOo OoOoOo OoOoOo
C           B7        Em
Then I just fade into you.
C           B7        Em
Then I just fade into you.
C           B7        Em
Then I just fade into you.

XOXO(K)
Tap to rate this tab
 
# A B C D E F G H I J K L M N O P Q R S T U V W X Y Z