Song name
# A B C D E F G H I J K L M N O P Q R S T U V W X Y Z

Sam Palladio And Clare Bowen - Fade Into You tab

-------------------------------------------------------------------------------
			     Fade Into You - Sam Palladio and Clare Bowen
-------------------------------------------------------------------------------
Tabbed by: Gemma Davies
E-mail:

Tuning: Capo 7

Intro

e|------0-0----0-0----0-0----0-0-----------| 
B|------0-0----0-0----0-0----0-0-----------|
G|------0-0----0-0----0-0----0-0-----------|
D|---2------1------0-----------------------|
A|-------------------------4---------------|
E|-----------------------------------------| x2

Verse 1
If you were the ocean and I was the sun
If the day made me heavy and gravity won
If I was the red and you were the blue
e|------0-0----0-0----0-0----0-0-----------| 
B|------0-0----0-0----0-0----0-0-----------|
G|------0-0----0-0----0-0----0-0-----------|
D|---2------1------------------------------|
A|-------------------------4---------------|
E|-----------------------------------------| x3

I could just fade into you (change chord on 'you' back to verse)
e|------0-0------------------------| 
B|------0-0----0-0-----------------|
G|------0-0----2-2-----------------|
D|-------------1-1-----------------|
A|---3-------2---------------------|
E|---------------------------------|

Verse 2
If you were the window and I was the rain
I'd pour myself out and wash off the pain
I'd fall like the tears so your light could shine through
e|------0-0----0-0----0-0----0-0-----------| 
B|------0-0----0-0----0-0----0-0-----------|
G|------0-0----0-0----0-0----0-0-----------|
D|---2------1------0-----------------------|
A|-------------------------4---------------|
E|-----------------------------------------| x3

Then I'd just fade into you (change chord on 'you' on to chorus)
e|------0-0------------------------| 
B|------0-0----0-0-----------------|
G|------0-0----2-2-----------------|
D|-------------1-1-----------------|
A|---3-------2---------------------|
E|---------------------------------|

In your heart in your head
In your arms in your bed
Under your skin
Till there's no way to know
Where you end and where I begin
e|-------0-0------0-0-------0-0----------------------------|
B|-------0-0------0-0-------0-0-------0-0------------------|
G|-------0-0------0-0-------0-0-------2-2------------------|
D|----2---------0---------------------1-1------------------|
A|------------------------3--------2-----------------------|
E|----0---------0---------0--------0-----------------------| x 2


Verse 3
I was a shadow and you were a street
A cobblestone midnight is where we first meet
Till the lights flickered out and we'd dance with the moon
Then I just fade into you

Chorus
In your heart in your head
In your arms in your bed
Under your skin
Till there's no way to know
Where you end and where I begin

I want to melt in, I want to soak through
I only want to move when you move
I want to breathe out when you breathe in
Then I want to fade into you

Verse 4
If I was the ashes and you were the ground
Under your willow they lay me down
There'll be no trace that one was once two
After I fade into you

Then I just fade into you
Then I just fade into you
Then I just fade into you
Then I just fade into you
Tap to rate this tab
 
# A B C D E F G H I J K L M N O P Q R S T U V W X Y Z