Guitaretab - guitar tabs
Song name
# A B C D E F G H I J K L M N O P Q R S T U V W X Y Z

Sam Roberts - Love At The End Of The World tab

----------------------------------------------------------------------------
	         Love At The End Of The World - Sam Roberts
----------------------------------------------------------------------------
Tabbed by:Waychee
Email:rvj11@hotmail.com

Tuning:standard

Capo 2nd fret

Verse:
e|---------|
B|---------|
G|-4-4-4-4-|x3
D|-4-4-4-4-|
A|-2-2-2-5-|
E|---5-----|

e|-------------------|
B|-------------------|
G|-------------------|
D|-4-3-2-------2-----|
A|-------5-2-5---5-2-|
E|-------------------|

e|---------|              
B|---------|                
G|-4-4-4-4-|                
D|-4-4-4-4-|                 
A|-2-2-2-5-|                  
E|---5-----|                   
                                
e|-------------------|          
B|-------------------|           
G|-------------------|x2      
D|-4-3-2-------2-----|       
A|-------5-2-5---5-2-|      
E|-------------------|

e|---------|              
B|---------|                
G|-4-4-4-4-|                
D|-4-4-4-4-|                 
A|-2-2-2-5-|                  
E|---5-----|  

e|-------------------|
B|-------------------|
G|-------------------|
D|-4-3-2-------2-----|
A|-------5-2-5---5-2-|
E|-------------------| 

e|---------|              
B|---------|                
G|-4-4-4-4-|                
D|-4-4-4-4-|                 
A|-2-2-2-5-|                  
E|---5-----|

e|-------------------|          
B|-------------------|           
G|-------------------|x2      
D|-4-3-2-------2-----|       
A|-------5-2-5---5-2-|      
E|-------------------|

Chorus:
e|------------|
B|------------|
G|-4----------|
D|-4--7--5--4-|
A|-2--7--5--4-|
E|----5--3--2-|

Verse 2:
e|-2--2-2-|
B|-3--3-3-|
G|-4--4-4-|x6
D|-4--4-4-|
A|-2--2-5-|
E|----5---|

e|-------------------|          
B|-------------------|           
G|-------------------|x2      
D|-4-3-2-------2-----|       
A|-------5-2-5---5-2-|      
E|-------------------|

e|-2--2-2-|
B|-3--3-3-|
G|-4--4-4-|x2
D|-4--4-4-|
A|-2--2-5-|
E|----5---|

e|-------------------|          
B|-------------------|           
G|-------------------|x2      
D|-4-3-2-------2-----|       
A|-------5-2-5---5-2-|      
E|-------------------|
[ Tab from: http://www.guitaretab.com/s/sam-roberts/109025.html ]
Prechorus:
e|-7---7--------2-|
B|-7---7--------3-|
G|-7---7------4-4-|
D|-9---9---7--4-4-|
A|-9---9---7--2-2-|
E|-7---7---5------|

Chorus:
e|-2----------|
B|-3----------|
G|-4----------|
D|-4--7--5--4-|
A|-2--7--5--4-|
E|----5--3--2-|

Solo:
e|-------------------------------------------------------------|
B|-12(temolando)--12-10----10-12-10----10-12-10----10-12-10----|
G|----------------------11----------11----------11----------10-|
D|-------------------------------------------------------------|
A|-------------------------------------------------------------|
E|-------------------------------------------------------------|

e|-------------------------------------------|
B|-12-10----10-12-10----10-12-10----10-12----|
G|-------11----------11----------11-------10-|
D|-------------------------------------------|
A|-------------------------------------------|
E|-------------------------------------------|

e|-----------------------------------|
B|--------------------12(tremolando)-|
G|-777777777977777777----------------|
D|-999999999999999999----------------|
A|-----------------------------------|
E|-----------------------------------|

Verse 3:
e|-2--2-2-|
B|-3--3-3-|
G|-4--4-4-|x2
D|-4--4-4-|
A|-2--2-5-|
E|----5---|

e|-------------------|          
B|-------------------|           
G|-------------------|x2      
D|-4-3-2-------2-----|       
A|-------5-2-5---5-2-|      
E|-------------------|

e|-2--2-2-|
B|-3--3-3-|
G|-4--4-4-|x2
D|-4--4-4-|
A|-2--2-5-|
E|----5---|

e|-------------------|          
B|-------------------|           
G|-------------------|x2      
D|-4-3-2-------2-----|       
A|-------5-2-5---5-2-|      
E|-------------------|

Prechorus:
e|-7---7--------2-|
B|-7---7--------3-|
G|-7---7------4-4-|
D|-9---9---7--4-4-|
A|-9---9---7--2-2-|
E|-7---7---5------|

Chorus:
e|-2----------2-|
B|-3----------3-|
G|-4----------4-|
D|-4--7--5--4-4-|
A|-2--7--5--4-2-|
E|----5--3--2---|

e|-2----------2-|
B|-3----------3-|
G|-4----------4-|
D|-4--7--5--4-4-|
A|-2--7--5--4-2-|
E|----5--3--2---|

I am 100% sure about this tab. I know he uses a capo after watching him play it. have fun!

| /  slide up
| \  slide down
| h  hammer-on
| p  pull-off
| ~  vibrato
| +  harmonic
| x  Mute note
============================================================================
Related for Love At The End Of The World tab