Song name
# A B C D E F G H I J K L M N O P Q R S T U V W X Y Z

Sam Roberts - Bridge To Nowhere tab

-----------------------------------------------------------|  x4
----------------2---222-2-2--------------------------------|
--6--666---4----2---222-2-2--------------1---1---111-1-1---|
--6--666---4----4---444-4-4--5-5---555---2---1---111-1-1---|
7-7--777-6-6--2-2---222-2-2--5-5---555-2-2-2-2---222-2-2---|
9-9--999-7-7--2-2---222-2-2--3-3---333-0-0-4-4---444-4-4---|


--------------------------------------------------------||
----------------2---222-2-2-----------------------------||
--6--666---4----2---222-2-2--------------1---1---111-1-1||
--6--666---4----4---444-4-4--5-5---555---2---1---111-1-1||
7-7--777-6-6--2-2---222-2-2--5-5---555-2-2-2-2---222-4-4||
9-9--999-7-7--2-2---222-2-2--3-3---333-0-0-4-4---444-4-4||
                                                        ||
9~-------7~---------------------------------------------||
--------------7~----------------------------------------||
-----------------------------9~-------13~-\8------------||
--------------------------------------------------------||
--------------------------------------------------------||
--------------------------------------------------------||

Only the intro, the rest confuses me with the keyboard going also. most of the song is
with the riff though so it's not a complete waste of your time to learn this. Most other
tab this with powerchords but when you see him play this lie he doesn't use powerchords 
it must be the real chords. please rate
Tap to rate this tab
# A B C D E F G H I J K L M N O P Q R S T U V W X Y Z