Sam Roberts - Graveyard Shift tab

e|-----------------------------------------------------------|
B|-----------------------------------------------------------|
G|-----------------------------------------------------------|
D|----------5-----7----5----------------5------7-----5-------|
A|-----7-------------------------5---------------------------|
E|-----------------------------------------------------------|

e|------------------------------------------------------------|
B|------------------------------------------------------------|
G|------------------------------------------------------------|
D|----------5------7-----5---------------5--------7-----------|
A|--0---------------------------0-----------------------5-----|
E|------------------------------------------------------------| Repeat 10X
Tap to rate this tab
 
# A B C D E F G H I J K L M N O P Q R S T U V W X Y Z