Song name
# A B C D E F G H I J K L M N O P Q R S T U V W X Y Z

Sam Roberts - I Feel You tab

This is the revised version of my previous tab. Still working on the rest.


Intro:
--------------------------------------------------------||
--------------------------------------------------------||
--------------------------------------------------------||
77-77-77-7----7-77-77-77-7----5-------------------------||
-----------35-0------------35---------------------------||
55-55-55-5------55-55-55-5------------------------------||

--------------------------------------------------------||
--------------------------------------------------------||
--------------------------------------------------------||
77-77-77-7----7-7-77-55555-12-12-12-12-10-77------------||
-----------35-0-----------------------------------------||
55-55-55-5------5-55-33333-10-10-10-10-8--55------------||

Verse:
--------------------------------------------------------||
--------------------------------------------------------||
--------------------------------------------------------||
--------------------------------------------------------||
5-5-5-5-8-5-5-5-3-5-5-5-5-8-5-5-5-3-1-1-1-1-3---------3-||
----------------------------------------------3-3-3-3---||
Tap to rate this tab
# A B C D E F G H I J K L M N O P Q R S T U V W X Y Z