Song name
# A B C D E F G H I J K L M N O P Q R S T U V W X Y Z

Sam Roberts - Let It In tab

Sam Roberts - Let It In 
Tabbed By : Pitty


Standard Tuning

Chords : Rhythm

e|----2----2----7---------2-------------------------------------------------|
B|----3----3----9----7----3-------------------------------------------------|
G|----4----4----9----7----4-------------------------------------------------|
D|----4----4----8----7----4-------------------------------------------------|
A|----2----2----7----5----2-------------------------------------------------|
E|--------------------------------------------------------------------------|


Tabs : Lead -- Repeat throughout whole song

e|--------------------------------------------------------------------------|
B|--------------------------------------------------------------------------|
G|----16-16--14-14----------------------------------------------------------|
D|------------------16-16----14/16--17-17--16-16--12-12--11-----------------|
A|-----------------------------------------------------------14-------------|
E|--------------------------------------------------------------------------|
Tap to rate this tab
# A B C D E F G H I J K L M N O P Q R S T U V W X Y Z