Song name
# A B C D E F G H I J K L M N O P Q R S T U V W X Y Z

Sam Roberts - Canadian Dream tab

CANADIAN DREAM - Sam Roberts
-----------------------------------------------------------------
Tabbed by: Neno
Email: nevenprostran@gmail.com

Tuning: Standard EADGBe


- I've included the counting to help with the rhythm since it can get pretty weird with the delay.
- The chords to the song are basically E and A all the way through if youre 
insterested in strumming.
- If the delay is set properly, this is all you have to play. The effect will fill in the gaps.

FIGURE 1 - INTRO - Gtr. 1 (Heavy Delay, it should sound like 8th notes)

   1        2        3        4         1        2        3 e & a  4 e & a 
e|------------------------------------|------------------------------------|
B|------------------------------------|------------------------------------|
G|------------------------------------|------------------------------------|
D|------------------------------------|------------------------------------|
A|------------------------------------|----------------------------4\2-----|
E|-0----------------------------------|-5-------------------5-5-7----------|


   1        2        3        4 e & a   1        2        3 e & a  4 e & a 
e|------------------------------------|------------------------------------|
B|------------------------------------|------------------------------------|
G|------------------------------------|------------------------------------|
D|------------------------------------|------------------------------------| Repeat this line x3
A|------------------------------------|----------------------------4\2-----|
E|-0----------------------------0-0-0-|-5-------------------5-5-7----------|



FIGURE 2 - VERSE

   1        2 e & a  3 e & a  4 e & a   1 e & a  2 e & a  3 e & a  4 e & a 
e|------------------------------------|------------------------------------|
B|------------------------------------|------------------------------------|
G|------------------------------------|------------------------------------|
D|------------------------------------|------------------------------------| x2
A|--------------7\5------5\4------5\4-|----------------------------4\2-----|
E|-0----------------------------------|-5-------------------5-5-7----------|


   1        2 e & a  3 e & a  4 e & a   1 e & a  2 e & a  3 e & a  4 e & a 
e|------------------------------------|------------------------------------|
B|------------------------------------|------------------------------------|
G|------------------------------------|------------------------------------|
D|------------------------------------|------------------------------------| x2
A|--------------7/9------5\4------5\4-|----------------------------4\2-----|
E|-0----------------------------------|-5-------------------5-5-7----------|




FIGURE 3 - CHORUS - Play each line from FIGURE 2 once and follow it with this

   1        2 e & a  3 e & a  4 e & a   1 e & a  2 e & a  3 e & a  4 e & a 
e|------------------------------------|------------------------------------|
B|------------------------------------|------------------------------------|
G|------------------------------------|------------------------------------|
D|------------------------------------|------------------------------------| x2
A|--------------7/9------9/11----(7\)-|----------------------------4\2-----|
E|-0----------------------------------|-5-------------------5-5-7----------|



Everything else in the song is built off of these basic patterns. 
Here are a few of the fills that he throws in here and there in the song. 
It is to complicated to map out each variation here.
There is a "solo" at the end of the song but its hard to hear and I didn't really
think it was substantial enough to take the time to tab.


   1        2 e & a  3 e & a  4 e & a   1        2        3 e &  a 4 e & a 
e|------------------------------------|------------------------------------|
B|------------------------------------|------------------------------------|
G|------------------------------------|--------------------------9\--------|
D|------------------------------------|---------------------9h11-----------|
A|--------------7/9------5\4------5\4-|------------------------------------|
E|-0----------------------------------|-5----------------------------------|


   1        2 e & a  3 e & a  4 e & a   1        2      3 e &  a  4 e  & a 
e|------------------------------------|------------------------------------|
B|------------------------------------|------------------------------------|
G|------------------------------------|------------------------------------|
D|------------------------------------|-------------------9h11-12---12-11--|
A|--------------7/9------5\4------5\4-|------------------------------------|
E|-0----------------------------------|-5----------------------------------|


Gtr.2

   1        2        3        4         1        2        3        4   
e|------------------------------------|------------------------------------|
B|------------------------------------|-14\--------------------------------|
G|------------------------------------|-14\--------------------------------|
D|-9----------------------------------|------------------------------------|
A|-7----------------------------------|------------------------------------|
E|-0----------------------------------|------------------------------------|




| /  slide up
| \  slide down
| h  hammer-on
| p  pull-off
| ~  vibrato
| +  harmonic
| x  Mute note
Tap to rate this tab
# A B C D E F G H I J K L M N O P Q R S T U V W X Y Z