Song name
# A B C D E F G H I J K L M N O P Q R S T U V W X Y Z

Sam Roberts - With A Bullet tab

Help us improve GuitareTab! Take a short survey!
-------------------------------------------------------------------------------
			     With a Bullet - Sam Roberts
-------------------------------------------------------------------------------
Tabbed by:waychee
Email:

Tuning:standard
  
  verse:
e|----x----x----x----x--|
B|----x----x----x----x--|
G|----x----7----x----x--|
D|----9----7----7----5--|
A|----9----5----7----5--|
E|----7----x----5----3--|
  
  pre-chorus:
e|----x-----x----x----x----x----x--|
B|----x-----x----x----x----x----x--|
G|----x-----x----x----9----11---x--|
D|----12----4----9----9----11---9--|
A|----12----4----9----7----9----9--|
E|----10----2----7----x----x----7--|

Guitar doesn't play at chorus.

| x  Mute note
Related for With A Bullet tab