Song name
# A B C D E F G H I J K L M N O P Q R S T U V W X Y Z

Sam Roberts - Mystified Heavy tab

Help us improve GuitareTab! Take a short survey!
-------------------------------------------------------------------------------
			     SONG NAME - Band Name
-------------------------------------------------------------------------------
Tabbed by: gellieman
Email:

Tuning: standard
intro (this is played over chords) 
e|---------------------------------------------------------------------------|
B|-5------3-------1-----0----------------------------------------------------|
G|---------------------------------------------------------------------------|
D|----------------------------2-------0-----------------------2--------------|
A|---------------------------------------------2-------0---------------------|
E|---------------------------------------------------------------------------|

later in the song its changed up a bit
e|---------------------------------------------------------------------------|
B|-5------3-------1-----0------3-----1-----0------------5--------------------|
G|-----------------------------------------------2---------------------------|
D|---------------------------------------------------------------------------|
A|---------------------------------------------------------------------------|
E|---------------------------------------------------------------------------|

this is my first tab
Related for Mystified Heavy tab