Song name
# A B C D E F G H I J K L M N O P Q R S T U V W X Y Z

Sam Roberts - Canadian Dream tab

Here's my version of the background guitar to Canadian Dream by sam roberts.
Rock on sam, rock on.

standard tuning (EADGBE)

E|--------------------------------------|
B|--------------------------------------|
G|--------------------------------------| repeat X4
D|--------------------------------------|
A|---------------------------------7-7--|
E|-0-0-0-0-0-0-0-0-00-5-5-5-5-5-579-9-9-|

E|----------------------------------|
B|----------------------------------|
G|----------------------------------|
D|----------------------------------|
A|-------7-7-5-5---------------7-7--|
E|-0-0-0----------5-5-5-5-5-579-9-9-|

This continues throughout the song, but i think they go back and forth from the first to the second.
Enjoy!
Tap to rate this tab
# A B C D E F G H I J K L M N O P Q R S T U V W X Y Z