Song name
# A B C D E F G H I J K L M N O P Q R S T U V W X Y Z

Sam Roberts - My Love Is Freeing tab

Intro and verses:
e|---------------------------------------|
B|--------------------------------------O|
G|---------------------------------------|
D|-----2-2-0-0---0-----4-5-0-0-----------|
A|-0-0---------3---0-0---------0-3------O|
E|---------------------------------------|

Chorus:
e|-------------------------------------|
B|-------------------------------------|
G|---2---2---2---2---2---2---2---2---2-|
D|-------------------------------------|
A|-0---0---0---0---0---0---0---0---0---|
E|-------------------------------------|

It's a pretty simple song. sometimes during the chorus he'll play the top open E string 
of the A on the 3rd string.


| /  slide up
| \  slide down
| h  hammer-on
| p  pull-off
| ~  vibrato
| +  harmonic
| x  Mute note
==========================================================================
Tap to rate this tab
# A B C D E F G H I J K L M N O P Q R S T U V W X Y Z