Song name
# A B C D E F G H I J K L M N O P Q R S T U V W X Y Z

Sam The Sham - Little Red Riding Hood tab

LITTLE RED RIDING HOOD
performed by Sam the Sam and the Pharaohs
this tab is based on Collins Crapo Chords so credit goes to him on them.
also some of this is stuff that i made up so it might be changed a little but
i believe it makes it sounds better.but u may do what you want to ur liking.
any question email me at bmxtreme1887@aol.com
Intro:(0:00-0:08)
e-|--------0---------------0---------------
B-|----------0---------------0-------------
G-|------------0---------------0-----------
D-|--------------2---------------2---------
A-|----------------------------------------
E-|-/3-2-0----------/3-2-0----------/3-2---

Verses:(0:09-0:25,0:26-0:41,1:12-1:27,1:28-1:42,2:15-2:30)
    Em          G            A
e-|----0-----0-----3------3-----0-----0-----0-----0--
B-|----0-----0-----0------0-----2-----2-----2-----2--
G-|--------------------------------------------------
D-|--------------------------------2-----------2-----
A-|-------2-----------2------0-----------0-----------
E-|-0-----------3------------------------------------
    
    C           B7          Em          B7    (may have to add a little more
e-|----0-----0-----2-----2-----0-----0--------2-2-2--|   strums going into the
B-|----1-----1-----4-----4-----0-----0--------4-4-4--|    chorus.)
G-|-------------------------------------------2-2-2--|
D-|-------2-----------4-----------------------4-4-4--|
A-|-3-----------2-----------------2-----2--2---------|
E-|-------------------------0------------------------|

Chorus(0:42-1:11,1:43-2:14)
    G                     Em
e-|----3-----3-----3---------0-----0-----0---------
B-|----0-----0-----0---------0-----0-----0---------
G-|----0-----0-----0---------0-----0-----0---------
D-|----0-----0-----0---------2-----2-----2---------
A-|-2-----2-----2---------------2-----2-----3-2-0--
E-|-3-----3-----3-----3-2-0-----0-----0------------

     A                       D7
e-|--0-----0-----0-----0--------2-----2-----2-2h3-2---|
B-|--2-----2-----2-----2--------1-----1-----1-1---1---|
G-|--2-----2-----2-----2--------2-----2-----2-2---2---|
D-|--2-----2-----2-----2-----0-----0-----0------------|
A-|-----0-----0-----0-----0---------------------------|
E-|---------------------------------------------------|

If you want a hardrock version then play it all on distortion and during the verse(it's
marked later) play this riff.changing strumming as u want.
   
e-|---------------------------------------------------------
B-|---------------------------------------------------------
G-|---------------------------------------------------------
D-|--2--2-2--2-2-2-5--5-5--5-5-5-7--7-7--7-7-7--7-7--7-7-7--
A-|--2--2-2--2-2-2-5--5-5--5-5-5-7--7-7--7-7-7--7-7--7-7-7--
E-|--0--0-0--0-0-0-3--3-3--3-3-3-5--5-5--5-5-5--5-5--5-5-5--

e-|-------------------------------------------------------------|
B-|-------------------------------------------------------------|
G-|--5--5-5--5-5-4--4--4-4--4-4----------------4--4--4-4-4-4-4--|
D-|--5--5-5--5-5-4--4--4-4--4-4-2--2--2-2--2-2-4--4--4-4-4-4-4--|
A-|--3--3-3--3-3-2--2--2-2--2-2-2--2--2-2--2-2-2--2--2-2-2-2-2--|
E-|-----------------------------0--0--0-0--0-0------------------|into hard chorus

heres the hard chorus:
e-|----------------------------------------------------------
B-|----------------------------------------------------------
G-|----------------------------------------------------------
D-|-----5-5-----5-5-----5-5---------2-2-----2-2-----2-2------
A-|-----5-5-----5-5-----5-5---------2-2-----2-2-----2-2--3-2-
E-|--3--3-3--3--3-3--3--3-3--3-2-0--0-0--0--0-0--0--0-0------

e-|------------------------------------------------------------------|-
B-|------------------------------------------------------------------|-
G-|-------------------------------------7-7-----7-7-----7-7-----7-7--|-
D-|-----7-7-----7-7-----7-7-----7-7-----7-7-----7-7-----7-7-----7-7--|-
A-|-----7-7-----7-7-----7-7-----7-7--5--5-5--5--5-5--5--5-5--5--5-5--|-
E-|--5--5-5--5--5-5--5--5-5--5--5-5----------------------------------|-

Song Order: Normal:		   Hard:              
            Intro x1               Intro x1
            Verse x2               Verse x1
            Chorusx2               Hard Verse x1
            Verse x2               Hard Chorusx1
	    Chorusx2               Chorusx1
            Verse xuntil fade      Verse x1
                                   Hard Verse x1
                                   Hard Chorusx1
				   Either Verse until fade

-------------------------------------------------------------------------------------
"Don't play with me,cause your playing with Fire"-Chris Stinnett
Tap to rate this tab
# A B C D E F G H I J K L M N O P Q R S T U V W X Y Z