Song name
# A B C D E F G H I J K L M N O P Q R S T U V W X Y Z

Samael - On Earth tab

-------------------------------------------------------------------------------
			      On Earth- Samael
-------------------------------------------------------------------------------
Tabbed by:Derz
Email:phillip55@web.de

Tuning:Standard

Git1:Riff1
e|---------------------------------------------------------------------------|
B|---------------------------------------------------------------------------|
G|---------------22-33-22-33-------------------------------------------------|
D|--77-88-77-88-3--3--3--3--32-----------------------------------------------|
A|-5--5--5--5-----------------54-x3------------------------------------------|
E|---------------------------------------------------------------------------|

Git2:Riff1:About 30 times you play this!

e|---------------------------------------------------------------------------|
B|---------------------------------------------------------------------------|
G|---------------------------------------------------------------------------|
D|-77-77---------------------------------------------------------------------|
A|-55-55-x30--3-2------------------------------------------------------------|
E|---------------------------------------------------------------------------|


Git3:Riff1 you have to figure out when he plays it!

e|---------------------------------------------------------------------------|
B|---------------------------------------------------------------------------|
G|---2--2--------------------------------------------------------------------|
D|-23-23---x2----------------------------------------------------------------|
A|---------------------------------------------------------------------------|
E|---------------------------------------------------------------------------|
Riff2:x2

e|---------------------------------------------------------------------------|
B|-----------------------------------------Fill1-play-this-after-Riff2:------|
G|----------------------2-22-333-5-3-2-x2---8-7-5---------------5-6-8-x1-----|
D|--7-77-888-10-8-7-x2-3-------------------------8-7-5-----5-6-8-------------|
A|-5--------------------------------------------------8-7-5------------------|
E|---------------------------------------------------------------------------|

Riff1:x3
Riff2:x4
Riff1:x3
Riff2:x4
Fill1:x1 palm muted
Riff2:x2
Riff1:x1

End!



Tap to rate this tab
 
# A B C D E F G H I J K L M N O P Q R S T U V W X Y Z