Song name
# A B C D E F G H I J K L M N O P Q R S T U V W X Y Z

Samantha Fox - Naughty Girls Need Love Too tab

http://www.samfox.com/main/

This song is featured in CLERKS 2 during the donkey love scene. 

Intro:

e|------------------------------------------------------------9--------------|
B|---------9----------------------11--9--------------------------9--11-------|
G|-8-10-11----11-----11-10-8-------------8-10-11-11-10-8---------------------|
D|----------------------------8-9------------------------8-9-----------------|
A|---------------------------------------------------------------------------|
E|---------------------------------------------------------------------------|


e|---------------------------------------------------------------------------|
B|---------------------11-9--------------------------------------------------|
G|--11-10-11-------------------8-10-11--10-11-10-------8-8-8-8---------------|
D|--------------8-9-------------------------------11-------------------------|
A|---------------------------------------------------------------------------|
E|---------------------------------------------------------------------------|



Verse:

e|---------------------------------------------------------------------------|
B|---------------------------------------------------------------------------|
G|---------------------------------------------------------------------------|
D|---------------------------------------------------------------------------|
A|--6-6-6----4-4-4---1-1-1---2-2-2-------------------------------------------|
E|---------------------------------------------------------------------------|


Bridge(rap):

e|---------------------------------------------------------------------------|
B|-------2----4--------------------------------------------------------------|
G|---3---1----4----6--6---7--7-----------------------------------------------|
D|---4---3----4----6--6---6--6-----------------------------------------------|
A|---6---4----2----4--4---5--5-----------------------------------------------|
E|---------------------------------------------------------------------------|
Tap to rate this tab
 
# A B C D E F G H I J K L M N O P Q R S T U V W X Y Z