Song name
# A B C D E F G H I J K L M N O P Q R S T U V W X Y Z

Samantha Jeen - Pretty Boy Acoustic tab

Pretty Boy - M2M/Samantha Jeen
Format: [TAB]

Arranged by: Samantha Jeen 
Tabbed by: DreamerXOne  
Capo 1

INTRO:


E|----------------------|--0h1--0-----------|----------------------|----------------------|
B|-----------3----1-----|----------3--1-----|-----------3----1-----|-----------3----1-----|
G|--------0----------0--|-------------------|--------0----------0--|--------0----------0--|
D|-----2----------------|-------------------|-----2----------------|-----2----------------|
A|--3-------------------|----------------2--|--0-------------------|--0-------------------|
E|----------------------|-------------------|----------------------|----------------------|


E|----------------------|--0h1--0----------x--0---x-0----3----|---------------------------|
B|-----------3----1-----|----------3--1----x--0---x-1----0----|---------------------------|
G|--------0----------0--|------------------x--0---x-2----0----|---------------------------|
D|-----2----------------|------------------x--0---x-2----0----|---------------------------|
A|--3-------------------|------------------x--0---x-0----2----|---------------------------|
E|----------------------|------------------x--0---x-0----3----|---------------------------|


===============================================================


VERSE 1:


 I  lie      awake  at night . . .       See things       in black and white

E|----------------------|----------------------|----------------------|----------------------|
B|-----------1----------|-----------3----1-----|-----------1----------|-----------3----1-----|
G|--------0-------0-----|--------0----------0--|--------2-------2-----|--------2----------2--|
D|-----2-------------2--|-----2----------------|-----2-------------2--|-----2----------------|
A|--3-------------------|--3-------------------|--0-------------------|--0-------------------|
E|----------------------|----------------------|----------------------|----------------------|


 I've only  got you   inside   my   mind . . .  You know you have made me blind
 
E|-----------1----------|-----------1----------|-----------1----------|-----------3----------|
B|----------------------|----------------------|----------------------|----------------------|
G|--------2-------2-----|--------2-------2-----|--------2-------2-----|----------------------|
D|-----3-------------3--|-----3-------------3--|-----0-------------0--|--------0-------0-----|
A|--0-------------------|--0-------------------|--0-------------------|-----2-------------2--|
E|----------------------|----------------------|----------------------|--3-------------------|


================================================


VERSE 2:


 I   lie   awake    and pray . . .           That  you will look  my  way  

E|----------------------|----------------------|----------------------|----------------------|
B|-----------1----------|-----------3----1-----|-----------1----------|-----------3----1-----|
G|--------0-------0-----|--------0----------0--|--------2-------2-----|--------2----------2--|
D|-----2-------------2--|-----2----------------|-----2-------------2--|-----2----------------|
A|--3-------------------|--3-------------------|--0-------------------|--0-------------------|
E|----------------------|----------------------|----------------------|----------------------|


I have all this longing in my heart . . .   I knew it right from the start

E|-----------1--------|-----------3----------|-----------1----------|-----------3------------3--|
B|--------------------|----------------------|----------------------|------------------------0--|
G|--------2-----2-----|----------------------|--------2-------2-----|------------------------0--|
D|-----3-----------3--|--------0-------0-----|-----0-------------0--|--------0-------0-------0--|
A|--0-----------------|-----2-------------2--|--0-------------------|-----2-------------2----2--|
E|--------------------|--3-------------------|----------------------|--3---------------------3--|


==============================================


CHORUS:


(3 knocks on board)


      Oh my
  .   .   .

 
  pretty pretty boy   I love you      Like  I  . .  never     ever loved no   one   before     you

E|--------x----------x--|-----------x----------x--|-----------x-------------|--------3--x--------3--x--|
B|-----1--x-------1--x--|--------0--x-------0--x--|--------1--x-------1--x--|--------0--x--------0--x--|
G|-----0--x-------0--x--|--------0--x-------0--x--|--------2--x-------2--x--|--------0--x--------0--x--|
D|-----2--x-------2--x--|--------2--x-------2--x--|--------2--x-------2--x--|-----------x-----------x--|
A|--3-----x----3-----x--|--0--2-----x----2-----x--|--0--0-----x----0-----x--|--0--------x-----------x--|
E|--------x----------x--|-----------x----------x--|-----------x-------------|-----3-----x-----3-----x--|


  Pretty pretty   boy  of     mine . . Just tell me   you  love  me too 

E|-----------x----------x---|---------x----------x--|------1--X-------1--X--|---------3--X-------3--X--|
B|--------1--X-------1--X---|------1--x-------1--x--|------1--X-------1--X--|---------0--X-------0--X--|
G|--------2--X-------2--X---|------0--x-------0--x--|------2--X-------2--X--|---------0--X-------0--X--|
D|--------3--X-------3--X---|------2--x-------2--x--|---0-----X----0-----X--|------------X----------X--|
A|--0--0-----X----0-----X---|---3-----x----3-----x--|---------X----------X--|---2--------X----------X--|
E|-----------x----------x---|---------x----------x--|---------X----------X--|------3-----X----3-----X--|


=====================================================


Oh my pretty pretty boy I need you . . Oh my       pretty pretty   boy  I  do . . .

E|--------x----------x--|-----------x----------x--|-----------x-------------|--------3--x--------3--x--|
B|-----1--x-------1--x--|--------0--x-------0--x--|--------1--x-------1--x--|--------0--x--------0--x--|
G|-----0--x-------0--x--|--------0--x-------0--x--|--------2--x-------2--x--|--------0--x--------0--x--|
D|-----2--x-------2--x--|--------2--x-------2--x--|--------2--x-------2--x--|-----------x-----------x--|
A|--3-----x----3-----x--|--0--2-----x----2-----x--|--0--0-----x----0-----x--|--0--------x-----------x--|
E|--------x----------x--|-----------x----------x--|-----------x-------------|-----3-----x-----3-----x--|


Let me inside  make  me         stay        right  (beside you ) . . .

E|-----------x----------x---|------1--x----------x---|
B|--------1--X-------1--X---|------1--x----------x---|
G|--------2--X-------2--X---|------2--x----------x---|
D|--------3--X-------3--X---|------0--x----------x---|
A|-----0-----X----0-----X---|------0--x-------2--x---|
E|-----------x----------x---|------0--x----3-----x---|


======================================================


ADLIB:


(beside you . . .)

E|----------------------|--0h1--0-----------|----------------------|----------------------|
B|-----------3----1-----|----------3--1-----|-----------3----1-----|-----------3----1-----|
G|--------0----------0--|-------------------|--------0----------0--|--------0----------0--|
D|-----2----------------|-------------------|-----2----------------|-----2----------------|
A|--3-------------------|----------------2--|--0-------------------|--0-------------------|
E|----------------------|-------------------|----------------------|----------------------|


E|----------------------|--0h1--0----------x--0----x-0-----3----|-------------------------|
B|-----------3----1-----|----------3--1----x--0----x-1-----0----|-------------------------|
G|--------0----------0--|------------------x--0----x-2-----0----|-------------------------|
D|-----2----------------|------------------x--0----x-2-----0----|-------------------------|
A|--3-------------------|------------------x--0----x-0-----2----|-------------------------|
E|----------------------|------------------x--0----x-0-----3----|-------------------------|


================================================================


VERSE 3:


I used to write  your name . . .            And put   it     in    a   frame

E|----------------------|----------------------|----------------------|----------------------|
B|-----------1----------|-----------3----1-----|-----------1----------|-----------3----1-----|
G|--------0-------0-----|--------0----------0--|--------2-------2-----|--------2----------2--|
D|-----2-------------2--|-----2----------------|-----2-------------2--|-----2----------------|
A|--3-------------------|--3-------------------|--0-------------------|--0-------------------|
E|----------------------|----------------------|----------------------|----------------------|


And sometimes I think I hear you call . .    Right from my bedroom  wall 

E|-----------1--------|-----------3----------|-----------1----------|-----------3------------|
B|--------------------|----------------------|----------------------|------------------------|
G|--------2-----2-----|----------------------|--------2-------2-----|------------------------|
D|-----3-----------3--|--------0-------0-----|-----0-------------0--|--------0-------0-------|
A|--0-----------------|-----2-------------2--|--0-------------------|-----2-------------2----|
E|--------------------|--3-------------------|----------------------|--3---------------------|


==============================================


VERSE 4:

You stay  a   little  while . . .          And  touch  me  with  your smile

E|----------------------|----------------------|----------------------|----------------------|
B|-----------1----------|-----------3----1-----|-----------1----------|-----------3----1-----|
G|--------0-------0-----|--------0----------0--|--------2-------2-----|--------2----------2--|
D|-----2-------------2--|-----2----------------|-----2-------------2--|-----2----------------|
A|--3-------------------|--3-------------------|--0-------------------|--0-------------------|
E|----------------------|----------------------|----------------------|----------------------|


And what can I say to make  you  mine . .   To reach out for you in time

E|-----------1--------|-----------3----------|-----------1----------|-----------3------------0--|
B|--------------------|----------------------|----------------------|------------------------0--|
G|--------2-----2-----|----------------------|--------2-------2-----|------------------------0--|
D|-----3-----------3--|--------0-------0-----|-----3-------------3--|--------0-------0-------0--|
A|--0-----------------|-----2-------------2--|--0-------------------|-----2-------------2----0--|
E|--------------------|--3-------------------|----------------------|--3---------------------0--|


CHORUS 2:


(3 knocks on board)

   Oh my 
.   .  .


 pretty pretty boy       I love you   like I      never ever    loved no    one       before   you

E|--------x----------x--|-----------x----------x--|-----------x-------------|--------3--x--------3--x--|
B|-----1--x-------1--x--|--------0--x-------0--x--|--------1--x-------1--x--|--------0--x--------0--x--|
G|-----0--x-------0--x--|--------0--x-------0--x--|--------2--x-------2--x--|--------0--x--------0--x--|
D|-----2--x-------2--x--|--------2--x-------2--x--|--------2--x-------2--x--|-----------x-----------x--|
A|--3-----x----3-----x--|--0--2-----x----2-----x--|--0--0-----x----0-----x--|--0--------x-----------x--|
E|--------x----------x--|-----------x----------x--|-----------x-------------|-----3-----x-----3-----x--|


   Pretty pretty   boy of    mine     Just tell me you  love  me   too  . . .

E|-----------x----------x---|---------x----------x--|------1--X-------1--X--|---------3--X-------3--X--|
B|--------1--X-------1--X---|------1--x-------1--x--|------1--X-------1--X--|---------0--X-------0--X--|
G|--------2--X-------2--X---|------0--x-------0--x--|------2--X-------2--X--|---------0--X-------0--X--|
D|--------3--X-------3--X---|------2--x-------2--x--|---0-----X----0-----X--|------------X----------X--|
A|--0--0-----X----0-----X---|---3-----x----3-----x--|---------X----------X--|---2--------X----------X--|
E|-----------x----------x---|---------x----------x--|---------X----------X--|------3-----X----3-----X--|


=====================================================


Oh my pretty pretty boy   I need you   Oh my        pretty pretty  boy     I  do

E|--------x----------x--|-----------x----------x--|-----------x-------------|--------3--x--------3--x--|
B|-----1--x-------1--x--|--------0--x-------0--x--|--------1--x-------1--x--|--------0--x--------0--x--|
G|-----0--x-------0--x--|--------0--x-------0--x--|--------2--x-------2--x--|--------0--x--------0--x--|
D|-----2--x-------2--x--|--------2--x-------2--x--|--------2--x-------2--x--|-----------x-----------x--|
A|--3-----x----3-----x--|--0--2-----x----2-----x--|--0--0-----x----0-----x--|--0--------x-----------x--|
E|--------x----------x--|-----------x----------x--|-----------x-------------|-----3-----x-----3-----x--|


Let me inside   Make me       stay    right        beside  you . . . .                        Oh  pretty

E|---------x----------x---|-----0--x-------3--x----|----------x----------x---|----------x----------x---|
B|------1--X-------1--X---|-----1--x----------x----|-------1--x-------1--x---|-------1--x-------1--x---|
G|------2--X-------2--X---|-----2--x----------x----|-------0--x-------0--x---|-------0--x-------0--x---|
D|------3--X-------3--X---|-----0--x----------x----|-------2--x-------2--x---|-------2--x-------2--x---|
A|---0-----X----0-----X---|-----0--x-------2--x----|----3-----x----3-----x---|----3-----x----3-----x---|
E|---------x----------x---|-----0--x----3-----x----|----------x----------x---|----------x----------x---|


====================================================


BRIDGE:


   boy, pretty boy, pretty boy . . say you love  me . . .     too . . .

E|--------------------------1---|-------------1------------|---------------3------------0--|
B|--------------------------1---|----------1-------1-------|----------------------------0--|
G|-------------1------------2---|-------2-------------2----|----------------------------0--|
D|----------4-------4-------2---|----0---------------------|------------0-------0-------0--|
A|-------4-------------4----3---|--------------------------|---------2-------------2----0--|
E|----1---------------------0---|--------------------------|------3---------------------0--|



cHORUS 3:


(3 knocks on board)


   Oh my 
.   .  .


 pretty pretty boy       I love you   like I      never ever    loved no    one       before   you

E|--------x----------x--|-----------x----------x--|-----------x-------------|--------3--x--------3--x--|
B|-----1--x-------1--x--|--------0--x-------0--x--|--------1--x-------1--x--|--------0--x--------0--x--|
G|-----0--x-------0--x--|--------0--x-------0--x--|--------2--x-------2--x--|--------0--x--------0--x--|
D|-----2--x-------2--x--|--------2--x-------2--x--|--------2--x-------2--x--|-----------x-----------x--|
A|--3-----x----3-----x--|--0--2-----x----2-----x--|--0--0-----x----0-----x--|--0--------x-----------x--|
E|--------x----------x--|-----------x----------x--|-----------x-------------|-----3-----x-----3-----x--|


   Pretty pretty   boy of    mine     Just tell me you  love  me   too  . . . . . .

E|-----------x----------x---|---------x----------x--|---------X----------X--|---------3--X-------3--X--|
B|--------1--X-------1--X---|------1--x-------1--x--|------1--X-------1--X--|---------0--X-------0--X--|
G|--------2--X-------2--X---|------0--x-------0--x--|------2--X-------2--X--|---------0--X-------0--X--|
D|--------3--X-------3--X---|------2--x-------2--x--|---0-----X----0-----X--|------------X----------X--|
A|--0--0-----X----0-----X---|---3-----x----3-----x--|---------X----------X--|---2--------X----------X--|
E|-----------x----------x---|---------x----------x--|---------X----------X--|------3-----X----3-----X--|


=====================================================


Oh my pretty pretty boy   I need you   Oh my       pretty pretty  boy     I  do

E|--------x----------x--|-----------x----------x--|-----------x-------------|--------3--x--------3--x--|
B|-----1--x-------1--x--|--------0--x-------0--x--|--------1--x-------1--x--|--------0--x--------0--x--|
G|-----0--x-------0--x--|--------0--x-------0--x--|--------2--x-------2--x--|--------0--x--------0--x--|
D|-----2--x-------2--x--|--------2--x-------2--x--|--------2--x-------2--x--|-----------x-----------x--|
A|--3-----x----3-----x--|--0--2-----x----2-----x--|--0--0-----x----0-----x--|--0--------x-----------x--|
E|--------x----------x--|-----------x----------x--|-----------x-------------|-----3-----x-----3-----x--|


Let me inside   Make me       stay    right        beside  you . . . . 

E|---------x----------x---|-----0--x-------3--x----|----------x----------x---|----------x----------x---|
B|------1--X-------1--X---|-----1--x----------x----|-------1--x-------1--x---|-------1--x-------1--x---|
G|------2--X-------2--X---|-----2--x----------x----|-------0--x-------0--x---|-------0--x-------0--x---|
D|------3--X-------3--X---|-----0--x----------x----|-------2--x-------2--x---|-------2--x-------2--x---|
A|---0-----X----0-----X---|-----0--x-------2--x----|----3-----x----3-----x---|----3-----x----3-----x---|
E|---------x----------x---|-----0--x----3-----x----|----------x----------x---|----------x----------x---|


====================================================


OUTRO:


Let me inside      Make me  stay       right  beside  you . . . . 

E|---------------1------------1----|--------3-----0--------|
B|----------1---------1-------1----|--------------1--------|
G|-------2---------------2----2----|--------------0--------|
D|----3-----------------------0----|--------------2--------|
A|----------------------------0----|--------2-----3--------|
E|----------------------------0----|-----3--------0--------|





(/) Slide Up  (\) Slide Down  (h) Hammer On  (p) Pull Off  (b) Bend (r) Release (v) Vibrato


**********************************************

Pretty Boy - M2M/Samantha Jeen
Format: [CHORDS]


VERSE 1:

(C )I lie awake at night
See (Am)things in black and white
I've (F)only got you in side my mind
You (F/C) know you have made me (G)blind

VERSE 2:

(C )I lie awake and pray
(Am) That you will look my way
I (F) have all this longing (G) in my heart
I (F/C) knew it right from the (G) start


CHORUS 1:

Oh my (C) pretty pretty boy I (Em) love you
Like I (Am) never ever loved no (G) one before you
(F) Pretty pretty boy of (C) mine
Just tell me you (F/C) love me too (G)

Oh my (C) pretty pretty boy I (Em) need you
Oh my (Am) pretty pretty boy I (G) do
Let me in (F) side make me (F/C) stay (G) right be (C) side you


-ADLIB-


VERSE 3:

(C) I used to write your name
And (Am) put it in a frame
(F) And sometimes I think I (G) hear you call
(F/C) Right from my bedroom (G) wall

VERSE 4:

(C)You stay a little while
And (Am) touch me with your smile
(F) what can I say to (G) make you mine
(F/C) To reach out for you in (G) time


CHORUS 2:

Oh my (C) pretty pretty boy I (Em) love you
Like I (Am) never ever loved no (G) one before you
(F) Pretty pretty boy of (C) mine
Just tell me you (F/C) love me too (G)

Oh my (C) pretty pretty boy I (Em) need you
Oh my (Am) pretty pretty boy I (G) do
Let me in (F) side
Make me (F/C) stay (G) right be (C) side you


BRIDGE:

Oh (Fm) pretty boy, (Fm) pretty boy, (C) pretty boy
(F/C) say you (C) love me (G) too


CHORUS 3:

Oh my (C) pretty pretty boy I (Em) love you
Like I (Am) never ever loved no (G) one before you
(F) Pretty pretty boy of (C) mine
Just tell me you (F/C) love me too (G)

Oh my (C) pretty pretty boy I (Em) need you
Oh my (Am) pretty pretty boy I (G) do
Let me in (F) side
Make me (F/C) stay (G) right be (C) side you

Let me in (F) side
Make me (F/C) stay (G) right be (C) side you . .



 Samantha Jeen
Tap to rate this tab
# A B C D E F G H I J K L M N O P Q R S T U V W X Y Z