Song name
# A B C D E F G H I J K L M N O P Q R S T U V W X Y Z

Sambomaster - Sono Nukumori Ni You Ga Aru tab

-------------------------------------------------------------------------------
			     Sono Nukumori ni You ga Aru - Sambomaster
-------------------------------------------------------------------------------
Tabbed by: Zackadellic Spirradical
Email:

Tuning: Standard

Intro: Try to play this in an 'emotional' way. Try sliding notes and bending them a little.
e|-12-12--------------12------------12-----------------12------------------|
B|--12-11-11-11-10-10--9-9-9-9-12-12--11-11-11-11-10-10--9-----------------|
G|-------------------------------------------------------------------------|
D|-------------------------------------------------------------------------|
A|-------------------------------------------------------------------------|
E|-------------------------------------------------------------------------|

verse: Play this 4 times (vary in notes, play it your own way)
After the 2nd time, start to play it louder and louder. and then return to the soft 
way of playing.
So you actually play this 8 times if you count the part when he's singing.

e|-9-9--------9--h11-9------------7-7--------------------------------------|
B|-9--9-------11------9h11-9----x-7--7-------------------------------------|
G|-9---9------9-9-------------9-x-8---8----9-9-/11--9h11h9-----------------|
D|-11---11--x-11----------------x-9----9-x-9-9------------11---------------|
A|-11-----11--9-----------------x-9-----9--7-7-----------------------------|
E|-9------------------------------7----------------------------------------|

Chorus intro:Don't let the chords ring except for the last one to enter the chorus. And 
the last power chord 8x
e|-x-9----x-9----x-7----x------x-9----x-9-----x-x-7------------------------|
B|-x-9----x-11---x-7----x------x-9----x-11----x-x-7------------------------|
G|-x-9----x-9----x-8----x-9----x-9----x-9-----x-x-8----8-------------------|
D|-x-11---x-11---x-9----x-9----x-11---x-11----x-x-9----9-------------------|
A|-x-11---x-9----x-9----x-7----x-11---x-9-----x-x-9----9-------------------|
E|-x-9----x------x-7----x------x-9----x-------x-x-7----7-------------------|

Chorus: The chorus has exactly the same chords as you've used before and the strum 
isn't hard, just listen to the song and you'll figure it out in no time.
e|-9----9----7-------------------------------------------------------------|
B|-9----11---7-------------------------------------------------------------|
G|-9----9----8----9--------------------------------------------------------|
D|-11---11---9----9--------------------------------------------------------|
A|-11---9----9----7--------------------------------------------------------|
E|-9---------7-------------------------------------------------------------|



Well, that's basically it. If you listen to the song you'll be able to figure out when 
play what. So good luck with that!
I'm going to try and get a lot of Sambomaster tabs on ultimate-guitar for you all!

Zackadellic Spirradical

| /  slide up
| \  slide down
| h  hammer-on
| p  pull-off
| ~  vibrato
| +  harmonic
| x  Mute note
============================================================================
Tap to rate this tab
# A B C D E F G H I J K L M N O P Q R S T U V W X Y Z