Song name
# A B C D E F G H I J K L M N O P Q R S T U V W X Y Z

Sambomaster - Ai Won Chu tab

-------------------------------------------------------------------------------
			     Ai won chu - Sambomaster
-------------------------------------------------------------------------------
Tabbed by: Zackadellic

Tuning: Standard ***When playing the intro theme there is a capo on the 2nd fret


Intro theme
|--4p-2-4----4p-2-4----5h-7-5----4p-2-4-|
|--5----5----5----5----5----5----5----5-|
|----------------------6----6-----------|
|--2----2------------------------2----2-|
|------------3----3----2----2-----------|
|---------------------------------------|


Verse:
E - A - G#M - F#M - Am - B :|| Am - B

Chorus:
E - G#M - C#M - G#M - F#M - G#M - F#M - G#M :|| Am - Am - B - E

Bridge
E - G#M - C#M - B - F#M - G#M - Am - B


Sorry guys, I couldn't find the lyrics. And because of the whole Japanese thing going on 
didn't quite feel like writing it down myself.

Anyways,

SAMBOMASTER RULES, VISIT THE YOUTUBE CHANNEL: ''SAMBOFC'' !!!!!!!!!!!!!!!!!!!!!!!
BUY SAMBOMASTER STUFF!!!!!!
VISIT THE SAMBOMASTER OFFICIAL WEBSITE!!!!!

SAMBOMASTER WORLD TOUR NOW!!!!!!!!!!!!!!


~Zackadellic~


************************************

| /   slide up
| \   slide down
| h   hammer-on
| p   pull-off
| ~   vibrato
| +   harmonic
| x   Mute note
| b   Bend
| pb  Pre-bend
| br  Bend release
| pbr Pre-bend release
| brb Bend release bend

************************************
Tap to rate this tab
 
# A B C D E F G H I J K L M N O P Q R S T U V W X Y Z