Guitaretab - guitar tabs
Song name
# A B C D E F G H I J K L M N O P Q R S T U V W X Y Z

Sambora Richie - Harlem Rain tab

Harlem Rain
Artist: Bon Jovi
Tabber: Michael Mikkelsen (webdue@hotmail.com)

Intro 1:     __________  ___________  __________  __________
            |    X4    ||     X4    ||     X4   ||     X4   |
D |--------------7-----------5-----------3------------2-------|
A |----------7h8---8p7---5h7---7p5---3h5---5p3----2h4---4p2---|
F#|--------------------8-----------6-----------4------------3-|
D |-----------------------------------------------------------|
A |-----------------------------------------------------------|
D |--0~-------------------------------------------------------|

D ||----------------------------------|
A ||---4-2-4---4---4---4--4---4-------|
F#||-3-------3---1----------------3---|
D ||-----------------3---2--0---------|
A ||----------------------------4-----|
D ||----------------------------------|

Intro 2:
                                                                 X2
D ||-----------------------------------------0-----0--0-----------|
A ||-------------------------------------------0---0----0---------|
F#||--10h12-/15----13----12----10-8--0-3/5-------5-0--------------|
D ||--0--0------0-----0-----0--0--0--0-----0-------0----------0h2-|
A ||------------------------------------------------------0h2-----|
D ||-----------------------------------3/5---5--------0-----------|

D ||-----------------------------------------0-----0---0-----|
A ||-------------------------------------------0---------0---|
F#||--10h12-/15----13----12----10-8--0-3/5-------5---------0-|
D ||--0--0------0-----0-----0--0--0--0-----0---------0-------|
A ||---------------------------------------------------------|
D ||-----------------------------------3/5---5-----0---------|

D ||--1/2----2---2/4----4---2---2---0---|
A ||-------0---0------0---0---0---0-0---|
F#||--------------------------------0---|
D ||--0------------0--------0-------0---|
A ||------------------------------------|
D ||--0------------0--------0-----------|

Verse 1:
    ______________________   _________________   ____________________
   |          X4          | |        X2       | |         X2         |
D |----------0-------------|-----------0-------|----------0-----------|
A |------0-----0-----------|-------0-------0---|------0-----0---------|
F#|----0---0-----0---------|-----0---0---0---0-|----0---0-----0-------|
D |--------------------0h2-|-------------------|--------------------0-|
A |----------------0h2-----|-------------------|----------------0h2---|
D |--0---------------------|--/5-   --------------|--0-------------------|

Bridge:



[ Tab from: http://www.guitaretab.com/s/sambora-richie/24606.html ]
                                                     ___________________
                                                    |End 1.
D |-------0----------0-----|-------0----------0-----|----------0-------|
A |---------0----------0---|---------0----------0---|------0-------0---|
F#|-----1-----1----3-----3-|-----0-----0----0-----0-|----0---0---0---0-|
D |------------------------|------------------------|------------------|
A |------------------------|------------------------|------------------|
D |--/2---------/4---------|--/5---------/7---------|--0---------------|
   ________________ ________________
   ...             |End 2.          |
D |--1/2---2---2/4-|--0----0-0-0--0-|
A |------0---0-----|--0----0-0-0--0-|
F#|----------------|--0--0-0-0-0--0-|
D |----------------|--0--0-0-0-0--0-|
A |----------------|--0--0-----2--0-|
D |--0-------------|--0--0-----0--0-|

Verse 2:

Same As Verse 1

Bridge 2

Same as Bridge 1 (With end 2.)

Chourse: (Well im not sure what he plays here, just mess around with this)

D |-------0---------0-----|----------0-------|--------0------0-----|
A |---------0---------0---|------0-------0---|-----0--0--------0---|
F#|---8-------8---0-----0-|----0---0---0---0-|--8-----0----0-----0-|
D |-----------------------|------------------|---------------------|
A |-----------------------|------------------|---------------------|
D |--/9-8-------5---------|--0---------------|--9--7--5--5---------|

D |----------0----|------0--------0---|-------0-----------0-----|
A |------0---0--0-|------0--------0---|-------0---------0---0---|
F#|----0---0-0--0-|----0---0----0---0-|-----8---8-----0-------0-|
D |---------------|---------0---------|----------0--------------|
A |---------------|-------------------|-------------------------|
D |--0-------0--5-|--5-------/7-------|--/9--------\7-----------|

D |------0----------|--1/2---2---2/4---4---1/2---2---0~--|
A |--------0--------|------0---0-----0---0-----0---0-----|
F#|----0-----0------|------------------------------------|
D |-----------------|------------------------------------|
A |-----------------|------------------------------------|
D |--5---------/7~--|--0---------0-------------------0~--|

Verse 3:

Same as 1 and 2

Bridge 3:

Same as Bridge 2

Chourse 2:

Same as Chourse 1
Middlepart:

                                                                 X2
D ||-----------------------------------------0-----0--0-----------|
A ||-------------------------------------------0---0----0---------|
F#||--10h12-/15----13----12----10-8--0-3/5-------5-0--------------|
D ||--0--0------0-----0-----0--0--0--0-----0-------0----------0h2-|
A ||------------------------------------------------------0h2-----|
D ||-----------------------------------3/5---5--------0-----------|

D |------0--------0-----|------0---------0-----|
A |----0---0----0---0---|----0---0-----0---0---|
F#|----------0--------0-|----------0---------0-|
D |---------------------|----------------------|
A |---------------------|----------------------|
D |--0---------0--------|--2---------0---------|
                          |End 3.             |
D |--1/2---2---2/4---4---|--2/4\2p0------------|
A |------0---0-----0---0-|---------------------|
F#|----------------------|----------3/5\3p0----|
D |----------------------|------------------0--|
A |----------------------|---------------------|
D |--0---------0---------|---------------------|

Verse 4:

Same as the others (Before the “Vanishing, Vanishing Gone” part just use end 3. from the middlepart)

Bridge 4:
                                                  X3
D |-------0----------0-----|-------0----------0-----|
A |---------0----------0---|---------0----------0---|
F#|-----1-----1----3-----3-|-----0-----0----0-----0-|
D |------------------------|------------------------|
A |------------------------|------------------------|
D |--/2---------/4---------|--/5---------/5---------|

Outro:

D |--1/2---2---2/4---4---|--1/2---2---0---|
A |------0---0-----0---0-|------0---0-0---|
F#|----------------------|------------0---|
D |----------------------|------------0---|
A |----------------------|------------0---|
D |--0---------0---------|--0---------0---| 

Any comments or coreections to webdue@hotmail.com

enjoy:)
Related for Harlem Rain tab
Advertisement will be closed in 10 seconds