Guitaretab - guitar tabs
Song name
# A B C D E F G H I J K L M N O P Q R S T U V W X Y Z

Samhain - Trouble tab

SAMHAIN - Trouble


Intro/Verse
G-------------|--------------|
D-------------|-----1--1--3--|
A--1-1--3---|---3--3-------|
E-3--3--------|--------------|

Verse Riff 2
G------------------------|-----------------------|
D------------------------|-----------------------|
A-3-3-3-3-3-3-3-3-3-3-3-3|3-3-3-3-3-3-3-3-3-3-3-3|
E------------------------|-----------------------|
[ Tab from: http://www.guitaretab.com/s/samhain/130880.html ]
Chorus       Pt.2        Pt.3
G------5-4-3-|------------|--------------|
D-3-3-3------|------5-4-3-|--------------|
A------------|-3-3-3------|------5-4-3---|
E------------|------------|-3-3-3------1-|

Chorus End
G----------------------|----------------------|
D------5-4-3-----5-4-3-|------5-4-3-----------|
A-3-3-3-----3-3-3------|-3-3-3------3-----1-1|
E----------------------|----------------3-3--|
Related for Trouble tab