Song name
# A B C D E F G H I J K L M N O P Q R S T U V W X Y Z

Samhain - Descent tab

Band: Samhain
Song: Descent

Tabber: John Cukras
AIM: embryocrusher

Tuning: Normal

Riff 1: Part A             Part B  | played on 2nd time
E----------------|--------------------------------------------------|
B----------------|--------------------------------------------------|
G----------------|-2------------------------------------------------|
D----------------|-2-4-5-7---------------7-6--------8-7---------9-8-|
A-4-3-4-5--------|-0-2-3-5 x's 2---5-7-8------6-8-9------7-9-10-----|
E-2-1-2-3 x's 4--|--------------------------------------------------|

Riff 2:
E---------------------------|
B---------------------------|
G---------------------------|
D---2-----1----4----2-------|
A-4----3----5----4--2-------|
E-2----1----3----2--0 x's 4-|

Riff 1: Part B

Riff 2 (under solo first two times)

Pause

Riff 2 (under more soloing) x's 6

Riff 1 (first half under solo) x's 3

If you tab that solo
please send it to me!
Tap to rate this tab
 
# A B C D E F G H I J K L M N O P Q R S T U V W X Y Z