Guitaretab - guitar tabs
Song name
# A B C D E F G H I J K L M N O P Q R S T U V W X Y Z

Samhain - Horror Biz tab

Tabbed by:davey13
Email:bill_clinton_the_man@hotmail.co.uk

Tuning:EADGBe

intro/ verse
e|----------------------------------------------------------|
B|----------------------------------------------------------|
G|----------------------------------------------------------|
D|-----8-7-5xxxxxxxxxxx--8-7-5xxxxxxxxxxx--8-7-5xxxxxxxxxxx-|
A|-----8-7-5xxxxxxxxxxx--8-7-5xxxxxxxxxxx--8-7-5xxxxxxxxxxx-|
E|-----6-5-3xxxxxxxxxxx--6-5-3xxxxxxxxxxx--6-5-3xxxxxxxxxxx-|
[ Tab from: http://www.guitaretab.com/s/samhain/44098.html ]
pre-chorus 1
e|----------------------------|
B|----------------------------|
G|----------------------------|
D|-----8-7---8-7-5xxxxxxxxxxx-|
A|-----8-7---8-7-5xxxxxxxxxxx-|
E|-----6-5---6-5-3xxxxxxxxxxx-|
"you dont go in my bathroom...."

pre-chorus 2
e|------------|
B|------------|
G|------------|
D|-----8-7-10-|
A|-----8-7-10-|
E|-----6-5--8-|
"you dont go in my bathroom....WITH ME!"

Chorus

e|-------------------|
B|-------------------|
G|-----10------------|
D|-----10--10--8--10-|
A|------8--10--8--10-|
E|---------8--6---8--|

"ill put a knife right in you i warning you...."

thats it cant remember order but its pretty much that sorry but im being rather lazy wid 
recently but..meh.
Related for Horror Biz tab
Advertisement will be closed in 10 seconds