Song name
# A B C D E F G H I J K L M N O P Q R S T U V W X Y Z

Samhain - Let The Day Begin tab

Riff:
E------------------------------------------------------------------|
B------------------------------------------------------------------|
G------------------------------------------------------------------|
D------------------------------------------------------------------|
A--6666-6666-9999-4444----------6666666666666666-------------------|
E--4444-4444-7777-2222-3x--then:4444444444444444-------------------|

clean guitar:

E----------------------------|
B--------0-------------------|
G----1-----------------------|
D-1--------------------------|
A----------------------------|
E----------------------------|

Refrain:

E---------------------------------------------------|
B---------------------------------------------------|
G-8888888-----11-----------------88888888888888-----|
D-8888888-999-11-11--------------88888888888888-----|
A-6666666-999-9--11--------------66666666666666-----|
E---------777----9---2x--then:----------------------|

clean guitar solo:

E--4--------4--------4------------------------|
B-----4---------4--------4--------------------|
G-------4---------4--------4------------------|
D-----------------------------------4/6-------|
A---------------------------------------------|
E---------------------------------------------|

I think it's correct
Play with the music to find out
Tap to rate this tab
 
# A B C D E F G H I J K L M N O P Q R S T U V W X Y Z