Song name
# A B C D E F G H I J K L M N O P Q R S T U V W X Y Z

Samhain - Mother Of Mercy tab

main riff:
G|---------------------------------------------------------------------|
D|---------------------------------------------------------------------|
A|--------4------------------------------------------------------------|
E|-6-6-6-----4---2xx2xx2xx2xx2xx2xx2-----------------------------------|

chorus:
G|---------------------------------------------------------------------|
D|---------------------------------------------------------------------|
A|-------------------44444444--------6---------------------------------|
E|-66666666-44444444---------------------------------------------------|

ending chorus:
G|---------------------------------------------------------------------|
D|---------------------------------------------------------------------|
A|----------44444444-----------------6---------------------------------|
E|-66666666----------44444444------------------------------------------|

end:
G|---------------------------------------------------------------------|
D|---------------------------------------------------------------------|
A|--------4------------------------------------------------------------|
E|-6-6-6-----4------2--------------------------------------------------|
Tap to rate this tab
# A B C D E F G H I J K L M N O P Q R S T U V W X Y Z