Song name
# A B C D E F G H I J K L M N O P Q R S T U V W X Y Z

Samhain - Diabolos 88 tab

Band: Samhain
Song: Diabolos 88

Tabber: John Cukras
Email: riffreaper@yahoo.com

Tuning: Normal

Riff 1: 
E--------------------------
B--------------------------
G--------------------------
D--------------------------
A----5-------8-------------
E-55---55-55---------------

Riff 2:
E--------------------------
B--------------------------
G--------------------------
D--------------------------
A----1-------4-------------
E-11---11-11---------------

Alternates between the two of them till the end.
Easy.
Tap to rate this tab
 
# A B C D E F G H I J K L M N O P Q R S T U V W X Y Z