Song name
# A B C D E F G H I J K L M N O P Q R S T U V W X Y Z

Samhain - Unbridled tab

Band: Samhain
Song: Unbridled

Tabber: John Cukras
Email: riffreaper@yahoo.com

Tuning: Normal

Riff 1:
E------------------------------------------
B------------------------------------------
G------------------------------------------
D--------------------------------------2--2
A------------------------5-4-----------2--2
E-0-5-4-00-5-4-00-5-4-00----    x's 8 -0--0
pm. . . .. . . .. . . ..

Riff 1 x's 4

Riff 2:
E--------------
B--------------
G--------------
D-5-55--2--2--2
A-3-33--2--2--2
E-------0--0--0

Riff 3:
E--------------------
B--------------------
G--------------------
D--------------------
A--------------------
E-3333-5555-6666-4444  x's 4

Riff 1 x's 4
Tap to rate this tab
# A B C D E F G H I J K L M N O P Q R S T U V W X Y Z