Song name
# A B C D E F G H I J K L M N O P Q R S T U V W X Y Z

Samhain - Inkubus Sukkubus tab

Band: Samhain
Song: Inkubus Sukkubus

Tabber: John Cukras
Email: riffreaper@yahoo.com

Tuning: normal

Riff 1:
E-------------------------------------------------------------------------------------------------------------------------|
B-------------------------------------------------------------------------------------------------------------------------|
G-------------------------------------------------------------------------------------------------------------------------|
D-44-4-55-44--77-7-88-77--11-11-12-11--11-12-11--11-12-11---------99-9-10-9--11-11-1212-11-44-4-5-4--4-5-4--4-5-44--------|
A-22-2-33-22--55-5-66-55--99-9--10-9---9--10-9---9--10-99---------77-7-88-7--99-9--1010-9--22-2-3-2--2-3-2--2-3-22--------|
E-------------------------------------------------------- x's 2--------------------------------------------------- x's 2--|

Riff 1 (lightly palm muted)

Riff 2:
E--------------------------------------------------------------|
B--------------------------------------------------------------|
G--------------------------------------------------------------|
D-7-77-9-99-6-66-9-99-7-77-5-55-44-4-55-4-4-55-4-4-55-44-------|
A-5-55-7-77-4-44-7-77-5-55-3-33-22-2-33-2-2-33-2-2-33-22-------|
E------------------------------------------------------- x's 2-|

Riff 1 (lightly palm muted)

Riff 2

Pause

Riff 2

Riff 2
Tap to rate this tab
# A B C D E F G H I J K L M N O P Q R S T U V W X Y Z