Sami Anttila - Demon Inside tab

Sami Anttila - Demon Inside
from the album "See Through the Lies"
www.myspace.com/samianttila

Tuning Dropped-C
98bpm

Main riffs of the song tabbed

0:10->
|-----------------------------------------------------------------|
|-----------------------------------------------------------------|
|-----------------------------------------------------------------|2x
|-4-3----------3-2----------2-1---4-3-----------------------------|
|-4-3----------3-2----------2-1---4-3-----------------------------|
|------0-0-0-0------0-0-0-0-----0-----0-0-0-0-0-0-0-0-0-0-0-0-0-0-|

0:20->
|---------------------------------------------------------------------|
|---------------------------------------------------------------------|
|---------------------------------------------------------------------|
|-6-5----------5-4----------4-3---6-5h6p5-----------------------------|
|-6-5----------5-4----------4-3---6-5h6p5-----------------------------|
|------0000000------0000000-----0---------000000000000000000000000000-|

|---------------------------------------------------------------------|
|---------------------------------------------------------------------|
|---------------------------------------------------------------------|
|-4-3----------3-2----------2-1---4-3h4p3-----------------------------|
|-4-3----------3-2----------2-1---4-3h4p3-----------------------------|
|------0000000------0000000-----0---------000000000000000000000000000-|

0:30->
|-------------------------------------------------------------------|
|-------------------------------------------------------------------|
|-------------------------------------------------------------------|
|-------------------------------------------------------------------|
|-----------4-4-4-4-3-3-3-3---------6-6-6-6-5-5-5-5---------3-3-3-3-|
|-0-0-0-0-0-----------------4-4-4-4-----------------6-6-6-6---------|


|-------------------------------------------------------------------|
|-------------------------------------------------------------------|
|-------------------------------------------------------------------|
|-------------------------------------------------------------------|
|-----------4-4-4-4-3-3-3-3---------6-6-6-6-5-5-5-5---------3~------|
|-0-0-0-0-0-----------------4-4-4-4-----------------6-6-6-6---------|

0:35->
|-----------------------------------------------------------------------------------------|
|-----------------------------------------------------------------------------------------|
|-----------------------------------------------------------------------------------------|
|-7----------------6---------5---------5/8------------------------------------------------|
|-5----------------4---------3---------3/6----------------4-4-4-4-3-3-3-3---------6-6-6-6-|
|----0-0-0-0-0-0-0---0-0-0-0---0-0-0-0------0-0-0-0-0-0-0-----------------4-4-4-4---------|

|-----------------------------------------------------------------------------------------|
|-----------------------------------------------------------------------------------------|
|-----------------------------------------------------------------------------------------|
|-7----------------6---------5---------5/8------------------------------------------------|
|-5----------------4---------3---------3/6----------------4-4-4-4-6-6-6-6-3-3-3-3---------|
|----0-0-0-0-0-0-0---0-0-0-0---0-0-0-0------0-0-0-0-0-0-0-------------------------4-4-4-4-|

0:44->
|----------------------------------------------------------------------|
|----------------------------------------------------------------------|
|----------------------------------------------------------------------|
|-3/5----------5-4---4-3-----3/6---------------------------------------|2x
|-3/5----------5-4---4-3-----3/6---------------------------------------|
|------0-0-0-------0-----0-0-------0-0-0-0--0-0-0--0-0-0--0-0-0--0-0-0-|

|---------------------------------------------------------------------------|
|---------------------------------------------------------------------------|
|---------------------------------------------------------------------------|
|-0h1p0-----------------------0---0---------------------------------4---3-1-|
|-0h1p0-----------------------0---0-1--1/3--------------------------4---3-1-|
|-------0-0-0-0-0-0-0-0-0-0---0---1--1/3-3-3-3-3-3-3-3-3-3-3-3-3----0-------|
Tap to rate this tab
 
# A B C D E F G H I J K L M N O P Q R S T U V W X Y Z