Song name
# A B C D E F G H I J K L M N O P Q R S T U V W X Y Z

Sammath Naur - Noble Prophets tab

Song: Noble Prophets
Band: Sammath Naur
It's the solo halfway through the song until the end.
Enjoy! I may have written some stuff down wrong, but if you get lost here's a 
video of me playing with it.
http://www.youtube.com/watch?v=taHPaviUQ3I


Legend:
p: Pull off
h: Hammer On
b: Bend up
r: Return to note
/or\: slide up or down
(note): plucked and quickly slid away from, isn't held down.
: Harmonic
~or^orv: Depending how many they are, they are swivels or bends.
x: Stop or pause

d-------------------------------------------------------------------------|
A--------------------------19b20r19-----------(15)/19\15--15\10/12-12~^---|
F------------------16b17r16---------19------------------------------------|
C--16p14h16h17/19~---------------------17/21------------------------------|
G-------------------------------------------------------------------------|
D-------------------------------------------------------------------------|

d-----14/15---------------------------------------------------------------|
A-------------------------------------15~\8p7-----------------------------|
F--11-------11\7-7/9-9\-------9-11-12---------7~--------------------------|
C------------------------------------------------4h5--7/9~^v~-------------|
G-------------------------------------------------------------------------|
D-------------------------------------------------------------------------|

d-------------------------------------------------------------------------|
A-------------------------------------------------------------------------|
F-----11/12-12/14\11-11~/16-16^v\~----11\9--(9)/11~h12---11\9/11-12~^v~---|
C---9--------------------------------------9-----------12-----------------|
G-------------------------------------------------------------------------|
D-7-----------------------------------------------------------------------|

d-------------------------------------------------------------------------|
A-13\10/12~---------------------/(13)-13\10/(12)12~^--15\12-13\8~^v-------|
F----------12/14-14-14\7-7/9-9--------------------------------------------|
C-------------------------------------------------------------------------|
G-------------------------------------------------------------------------|
D-------------------------------------------------------------------------|

If you get stuck this part is noticeable. It's at about 3:18
d-------------------------------------------------------------------------|
A-7~--7~------------------------------------------------------------------|
F---9---9--\99~\8-8-8~----------------------------------------------------|
C-------------------------------------------------------------------------|
G-------------------------------------------------------------------------|
D-------------------------------------------------------------------------|

d----------------3p0-0000-3--2--------------5p0h5h8p0-0000----------------|
A-----------5p0h5---------6b-5b----------5-5------------------------------|
F------4p0h4-----------------------5p4h5--0-------------------------------|
C-5p4h5-------------------------------------------------------------------|
G-------------------------------------------------------------------------|
D-------------------------------------------------------------------------|

d--8---7---0000-------------------3p0-0000-3--2---------------------------|
A--11b-10b------------------5p0h5----------6b-5b---7~-7~-7~---------------|
F---------------------4p0h4--------------------------9--9---/99\8-888~----|
C----------------5p4h5----------------------------------------------------|
G-------------------------------------------------------------------------|
D-------------------------------------------------------------------------|

d-------------------------------------------------------------------------|
A---------------15~-------------------------------------------------------|
F--------------------14/16~^v------------16/17~---------------16~---------|
C-/17--14-16-17---17--------------14---14-------17\16~--16h17-------------|
G---------------------------------14-14-----------------------------------|
D-------------------------------------------------------------------------|

d-------------------------------------------------------------------------|
A--------------------/15-15~^^v^v~--12/13---------------------------------|
F-------14~--16---------------------------14~-----------------------------|
C-16~-17-------14~-----------------------------14/16-14~\13-13~-----------|
G-------------------------------------------------------------------------|
D-------------------------------------------------------------------------|


Right here we are at about 3:51
d-------------------------------------------------------------------------|
A----------15~------------------------------------------------------------|
F----------------14/16~--16~/212121\1414/171717\121212/161616x------------|
C-14-16-17----17----------------------------------------------------------|
G-------------------------------------------------------------------------|
D-------------------------------------------------------------------------|

d-------------------------------------------------------------------------|
A------------------15~^^vv^v~----------------------------------16~^v^v~---|
F--16/17-17-17\14~-----------------/17171717\14x---(16h17)----------------|
C-------------------------------------------------------------------------|
G-------------------------------------------------------------------------|
D-------------------------------------------------------------------------|

d-------------------------------------------------------------------------|
A-------------------------------------------------------------------------|
F-------------------------------------------------------------------------|
C--14-14-14-14-14/16-16-16-16-16/19-19-19-19/21-21-21---------------------|
G-------------------------------------------------------------------------|
D-------------------------------------------------------------------------|

d--------------------------------------------------------------------------|
A-------------------------------------/13131313\8888/10101010/121212~------|
F--------------------------------------------------------------------------|
C-1414141414/16161616\12121212\101010--------------------------------------|
G--------------------------------------------------------------------------|
D--------------------------------------------------------------------------|

d------------------------------------------------------------------12~^v^-----|
A-12-12-12-12-12\8-8-8-8\7-<7>~^v~--------------------------------------------|
F----------------------------------/9p7------/9~---9/11h12p11h12p11-----------|
C---------------------------------------b9r8----------------------------------|
G-------------------------------------------------------------------------10--|
D-----------------------------------------------------------------------------|

This part is really weird, we are at about 4:25 here.
d-----------3p0h3-8p0h8p0h3p0h3p0---------------------------------------------------|
A------5p0h5---------------------5p0h5p0h1p0h1p0h5p0h5p0h3p0h5p0h3p0h1p0------------|
F-5p0h5--------------------------------------------------------------------2p0Trem--|
C-----------------------------------------------------------------------------------|
G-----------------------------------------------------------------------------------|
D-----------------------------------------------------------------------------------|

d------------------------8p7p5--------------------------------------------|
A-----------------------------8p7p5---------------------------------------|
F--------------7h9-----------------8p6p5-3h4h5-----5p4p2------------------|
C---------7h910----9h10-----------------------0h2p0-----5p4p2p0-0h2Trem---|
G--7h9h10-----------------------------------------------------------------|
D-------------------------------------------------------------------------|

d-------------------------------------/15151515\14141414/1919191919191919-|
A-/1313131312121212/17171717\16161616-------------------------------------|
F-------------------------------------------------------------------------|
C-------------------------------------------------------------------------|
G-------------------------------------------------------------------------|
D-------------------------------------------------------------------------|

d-12--14--15---14--12-15p14p12----------------------------------------------|
A-15b-17b-18b-17b------------12p11h12h15p12p11--11h12h15p12p11--11-12--12---|
F---------------------------------------------12--------------12-----12--12-|
C---------------------------------------------------------------------------|
G---------------------------------------------------------------------------|
D---------------------------------------------------------------------------|

d--------------------------------------------------------------------------|
A-12h15p12----12h15p12-----12h15p12-----12h15p12----12h15p12-15b^v~^-------|
F---------15b---------15b----------15b----------15b------------------------|
C--------------------------------------------------------------------------|
G--------------------------------------------------------------------------|
D--------------------------------------------------------------------------|

d--------------------------------------------------------------------------|
A--------------------------------------------------------------------------|
F------------------------------11h12h14/16\14p12p11h12h14/16---------------|
C-10h12h14-10h12h14/16-14p12p10--------------------------------------------|
G--------------------------------------------------------------------------|
D--------------------------------------------------------------------------|


d-----------------------12h14h15p14p12-12h14h15p14p12-12h14h15p14p12-15p14p12-|
A-12h13h15/17\15p13p12-15-------------15-------------15-----------------------|
F-----------------------------------------------------------------------------|
C-----------------------------------------------------------------------------|
G-----------------------------------------------------------------------------|
D-----------------------------------------------------------------------------|


d--17p4--14---------------------------------------------------------------|
A------16--16----19p16--16------16p13--13---------------------------------|
F------------17-------17--17---------14--14-----17p14--14-----------------|
C---------------------------19-------------16--------16--16---------------|
G----------------------------------------------------------18-------------|
D-------------------------------------------------------------------------|


d-------------------------------------------------------------------------|
A-------------------------------------------------------------------------|
F-------------------------------------------------------------------------|
C---19p16---16h19p16------------------------------------------------------|
G--------18---------18--18/19~--------------------------------------------|
D---------------------19--------------------------------------------------|

Well, there you have it.
Enjoy!
Tabbed by Tofer
(Mystievel)


For Ultimate-Guitar.com to get Sammath Naur into their database...

http://www.sammath-naur.com/

http://www.myspace.com/sammathnaur
Tap to rate this tab
 
# A B C D E F G H I J K L M N O P Q R S T U V W X Y Z